Evergreen Terrace - Shattered Remains Of My Broken Heart Chords & Tabs

 

Shattered Remains Of My Broken Heart Chords & Tabs

Evergreen Terrace Chords & Tabs

Version: 1 Type: Tab 0 ratings
1 star 2 stars 3 stars 4 stars 5 stars
comments

Shattered Remains Of My Broken Heart Tab

00:07
------------------------------------------------------------------|
------------------------------------------------------------------|
------7~~~-----9h10-9~~~~----12~~~~---9h10-9----7-5-7--7----------| x2
------7~~~--7-------------7----------------------------7----------|
------0~~~---------------------------------------------0----------|
------------------------------------------------------------------|

00:33
------------------------------------------------------------------|
------------------------------------------------------------------|
---7-7-x-x-7-7-x-x-7-7-x-x-7-7--9-9-9-9-x-x-10101010101010--------| x 4
---x-x-x-x-x-x-x-x-x-x-x-x-x-x--x-x-x-x-x-x-x-x-x-x-x-x-x---------|
---5-5-x-x-5-5-x-x-5-5-x-x-5-5--7-7-7-7-x-x-8-8-8-8-8-8-8---------|
------------------------------------------------------------------|

00:56
------------------------------------------------------------------------------|
------------------------------------------------------------------------------|
------------------9-9-9-9-9-9-9-9-------------------5-5-5-5-5-5--3-3-3--10101-|
-0-0-0-0-0-0-0-0--9-9-9-9-9-9-9-9--3-3-3-3-3-3-3-3--x-x-x-x-x-x--x-x-x--x-x-x-|
-0-0-0-0-0-0-0-0--7-7-7-7-7-7-7-7--3-3-3-3-3-3-3-3--3-3-3-3-3-3--1-1-1--8-8-8-|
-0-0-0-0-0-0-0-0-------------------3-3-3-3-3-3-3-3----------------------------|

------------------------------------------------------------------------------|
------------------------------------------------------------------------------|
------------------9-9-9-9-9-9-9-9-------------------9/101010--9/101010--------|
-0-0-0-0-0-0-0-0--9-9-9-9-9-9-9-9--3-3-3-3-3-3-3-3--x/x-x-x---x/x-x-x---------|
-0-0-0-0-0-0-0-0--7-7-7-7-7-7-7-7--3-3-3-3-3-3-3-3--7/8-8-8---7/8-8-8---------|
-0-0-0-0-0-0-0-0-------------------3-3-3-3-3-3-3-3----------------------------|

01:15
Theres a part right here that im wokrin on and ill post it when i get it figured out.
[ Tab from: http://www.guitartabs.cc/tabs/e/evergreen_terrace/shattered_remains_of_my_broken_heart_tab.html ]
01:26 (hile the little solo thing is playin)
------------------------------------------------------------------|
------------------------------------------------------------------|
--1010101010/9----------------------------------------------------|
--x-x-x-x-x/-x--[X2]----------------------------------------------|
--8-8-8-8-8/-7----------------------------------------------------|
------------------------------------------------------------------|

01:23 (Third guitar while solo thing is playin in the background)

----------------------------------------------------------------------|
----------------------------------------------------------------------|
----------------------------------------------------------------------|
--0-0-0--------0-0-0-------------------------------((01:38))----0-0-0-|
--0-0-0--------0-0-0----repeat as much as needed----------------0-0-0-|
--0-0-0--------0-0-0--------------------------------------------0-0-0-|


01:41
------------------------------------------------------------------|
------------------------------------------------------------------|
------7-7-7-7-------5-5-5-5-------3-3-3-3--10101010101010---------|
-0-0--x-x-x-x--0-0--x-x-x-x--0-0--x-x-x-x---x-x-x-x-x-x-x---------|
-0-0--5-5-5-5--0-0--3-3-3-3--0-0--1-1-1-1---8-8-8-8-8-8-8---------|
-0-0-----------0-0-----------0-0----------------------------------|

02:02

------------------------------------------------------------------|
------------------------------------------------------------------|
------------------------------------------------------------------|
-0-0-0-0--0-0-0--0-0-0-0-0-0--------------------------------------| X6
-0-0-0-0--0-0-0--0-0-0-0-0-0---Palm Muted-------------------------|
-0-0-0-0--0-0-0--0-0-0-0-0-0--------------------------------------|

sup yall, this is my tab for Shattered RemainsOf My Broken heart by Evergreen Terrace,
been wanting this tabbed for a year now casue i wanted to learn it and noone tabbed it
so i decide to sit down and learn it and tab it our for the other people that might want
it. Its not the complete song but its most of it...all thast missing is two guitar parts
im workin on now and ill put em up when i get em...if anything is wrong with it which
theres not i dont think but there could be just IM me and tell me Noth1nGldCanStay on
AIM or AOL. Enjoy...Later....
Comments