Evergreen Terrace - No Donnie These Men A Nhilist Chords & Tabs

 

No Donnie These Men A Nhilist Chords & Tabs

Evergreen Terrace Chords & Tabs

Version: 1 Type: Tab 0 ratings
1 star 2 stars 3 stars 4 stars 5 stars
comments

No Donnie These Men A Nhilist Tab

   
guitar 1 $2
e---------|
b---------|
g---------|
d-0-2-3-1-|
a-0-2-3-1-|
e-0-2-3-1-|

guitar 1
e---------------------------8-8-8-8----------------------------------------|
b--------10-10-10-10-8-8-8-8-------------------------------8-8-8-8---------|
g-7-7-7-7---------------------------10-10-10-10-10-10-10-10--------8-8-8-8-|
d--------------------------------------------------------------------------|
a--------------------------------------------------------------------------|
d--------------------------------------------------------------------------|

e---------------------------8-8-8-8-10-10-10-10-10-10-10-10---------------|
b--------10-10-10-10-8-8-8-8----------------------------------------------|
g-7-7-7-7-----------------------------------------------------------------|
d-------------------------------------------------------------------------|
a-------------------------------------------------------------------------|
d-------------------------------------------------------------------------|

guitar 2 you can figure out the breakdown
e------------|
b------------|
g------------|
d-00-00-0000-|
a-00-00-0000-|
d-00-00-0000-|
  ## ## ####
[ Tab from: http://www.guitartabs.cc/tabs/e/evergreen_terrace/no_donnie_these_men_a_nhilist_tab.html ]
guitars 1 and 2
e---------|
b---------|
g---------|
d-0-2-3-1-|
a-0-2-3-1-|
d-0-2-3-1-|

e------------------------------------------------------------|
b------------------------------------------------------------|
g------------------------------------------------------------|
d-0--8--10----------------0--8--10---------2-----------2-----|
a-0--8--10----8-----7-----0--8--10----3-----3------3-----3---|
d-0--8--10--8---7-7---7---0--8--10--5---5----5-5-5---5-----5-|
            #   # #   #
you can figure out the break down
e--------|
b-----14-|
g-----19-|
d-0-0----|
a-0-0----|
d-0-0----|
  # #

guitar 1
e-------------------------|
d-------------------------|
g-------------------------|
d-0-0-0-0-----------------|
a-0-0-0-0-1-0-------------|
d-0-0-0-0-----3-2-3-5-3-2-|

guitar 2
e--------------------------|
d--------------------------|
g--------------------------|
d-0-0-0-0---7-5----3-5-3-2-|
a-0-0-0-0-5------3---------|
d-0-0-0-0------------------|

e----------------------------------|
d----------------------------------|
g----------------------------------|
d-0-0-0-0-0-0-3-2--0-0-0-0-3-2-3-2-|
a-0-0-0-0-0-0-3-2--0-0-0-0-3-2-1-0-|
d-0-0-0-0-0-0-3-2--0-0-0-0-3-2-----|

e---
d---
g-7-
d-x-
a-5-
d---

then the break dowm again
Comments