Evergreen Terrace - Mad World Chords & Tabs

 

Mad World Chords & Tabs

Evergreen Terrace Chords & Tabs

Version: 1 Type: Bass Tab 0 ratings
1 star 2 stars 3 stars 4 stars 5 stars
comments

Mad World Bass Tab

Artist: Evergreen Terrace
Song: Mad World
Album: Writer's Block

1st Verse
G:------------------------------------------|
D:------------------------------------------|
A:----------22222222-----------44444444-----|
E:-00000000-----------00000000--------------|

Chorus:
G:---------------------------------------------|
D:---------------------------------------------|
A:-------------5-3-045---------------5-3-045---|
E:00000033333-----------00000033333------------|
[ Tab from: http://www.guitartabs.cc/tabs/e/evergreen_terrace/mad_world_btab.html ]
G:-----------------------------------------|
D:-----------------------------------------|
A:-111111-0-211-111111-0-211---------------|
E:-----------------------------------------|

Second Verse:
G:--------------------------------------------------|
D-------------------3h4p3/2-------------------------|
A----------22222222-------------------44444444------|
E:00000000-------------------00000000---------------|

Breakdown:
G:-------------------------------|
D:-------------------------------|
A:----------54-0-54-0-56---------|
E:-0000000-----------------------|

Outro (slapped):
G:--------------|
D:--------------|
A:--------------|
E:-0-000-011----|
Comments