Everclear - Your Genius Hands Chords & Tabs

 

Your Genius Hands Chords & Tabs

Everclear Chords & Tabs

Version: 2 Type: Tab 0 ratings
1 star 2 stars 3 stars 4 stars 5 stars
comments

Your Genius Hands Tab

Main Riff
-----------------------------|
-----------------------------|
--7--7--7--7---7-7-7-7--7-7--|
-----------------------------|
--5--5--5--5---5-5-5-5--5-5--|
-----------------------------|
[ Tab from: http://www.guitartabs.cc/tabs/e/everclear/your_genius_hands_tab_ver_2.html ]
Dividing Riff
-----------------------------|
-----------------------------|
--------------7--------------|
--9---8---7---7---7---6---5--|
--9---8---7---5---7---6---5--|
--7---6---5-------5---4---3--|

"I long to shake your genius hands"
--------------------------------------------------|
--------------------------------------------------|
--------------------------------------------------|
--4--4--4--4--4--4--4--4--5--5--5--5--5--5--5--5--|
--4--4--4--4--4--4--4--4--5--5--5--5--5--5--5--5--|
--2--2--2--2--2--2--2--2--3--3--3--3--3--3--3--3--|
Comments