Everclear - Wonderful Chords & Tabs

 

Wonderful Chords & Tabs

Everclear Chords & Tabs

Version: 4 Type: Bass Tab 0 ratings
1 star 2 stars 3 stars 4 stars 5 stars
comments

Wonderful Bass Tab

   
Wonderful
Song From An American Movie Volume 1: Learning How To Smile
Lyrics By Art Alexakis
Bass by Craig Montoya



G|-----------------------------|
D|-----------------------------| Repeat
A|--------5~-----3~-----5~-----|
E|--3~-------------------------|
    G     D      C      D

   Break
G|---------------------------------------------------------|
D|---------------------------------------------------------| Repeat
A|--------------7-5-----------7-3-----------7-5---------7--|
E|--3------------------------------------------------------|
    G           E D           E C           E D         E

   Chorus "I don't wanna hear you say..."
G|---------------------------------------------------|
D|---------------------------------------------------|
A|-3--3--3--3--3--3--3--3----5--5--5--5--5--5--5--5--|
E|---------------------------------------------------|

    The  "No !  No !  No !..."   part
G|----------------------------------------------------|
D|----------------------------------------------------|
A|----------------------------------------------------|
E|-3--3--3--x--x--x--0-0-0--3--3--3--x--x--x---0-0-0--|

[ Tab from: http://www.guitartabs.cc/tabs/e/everclear/wonderful_btab_ver_4.html ]
   Interlude "I just wanna my life to be the same just like it used to be"
G|----------------------------------------------------------
D|----------------------------------------------------------
A|------------------------------------------5---5---5---5---
E|--3---3---3---3---2---2---2---2--0---0---0---0------------
          G              F#              Em             D

   Outro Chorus "No! Please don't tell me everything is wonderful now"
G|-------------------------------------------------------|
D|----------------------------------------------------Repeat
A|--------7-7---5-5-5---7-7---3-3-3---7-7---5-5-5---7-7--|
E|--3-3-3------------------------------------------------|
      G    E      D      E      C      E      D      E

   Outro "Ohh Yeah, Yeah, everything is wonderful now"
G|----------------------------------------------------------
D|----------------------------------------- Repeat and Fade
A|----------------------------------------------------------
E|-3-3-3----0-0----3-3-3---0-0----3-3-3---0-0----3-3-3---0-0
     G      Em       G      Em      G     Em      G       Em
Comments