Everclear - Volvo Driving Soccer Mom Chords & Tabs

 

Volvo Driving Soccer Mom Chords & Tabs

Everclear Chords & Tabs

Version: 5 Type: Tab 0 ratings
1 star 2 stars 3 stars 4 stars 5 stars
comments

Volvo Driving Soccer Mom Tab

   
* = harmonics

INTRO (harmonics with distortion, rest clean)

E|------7*7*-----------------------------------------|
B|-7*7*----------------------------------------------|
G|---------------------------------------------------|
D|-----------10-10-x-x-10-10-x-x-10-10-x-x-10-10-x-x-|
A|-----------10-10-x-x-10-10-x-x-10-10-x-x-10-10-x-x-|
E|-----------8--8--x-x-8--8--x-x-8--8--x-x-8--8--x-x-|

VERSE (clean or distorted and/or muted, depending on which verse)
                           mini-riff
E|------------------------|---------|
B|------------------------|---------|
G|------------------------|----9----|
D|-10-10-7-7-5-5-3-3-3-3/-|-10---10-|
A|-10-10-7-7-5-5-3-3-3-3/-|---------|
E|-8--8--5-5-3-3-1-1-1-1/-|---------|
Verse ending before drums come in
E|-----------------------------------|
B|-----------------------------------|
G|-----------------------------------|
D|-10-10-7-7-5-5-3-3-2-2-2-2-3-3-3-3-|
A|-10-10-7-7-5-5-3-3-2-2-2-2-3-3-3-3-|
E|-8--8--5-5-3-3-1-1-0-0-0-0-1-1-1-1-|
Verse ending before chorus (palm mute last two chords)
E|---------------------------------------------|
B|---------------------------------------------|
G|---------------------------------------------|
D|-10-10-7-7-5-5-3-3-2-2-2-2-2-2-2-2-3-3-3-3-3-|
A|-10-10-7-7-5-5-3-3-2-2-2-2-2-2-2-2-3-3-3-3-3-|
E|-8--8--5-5-3-3-1-1-0-0-0-0-0-0-0-0-1-1-1-1-1-|
[ Tab from: http://www.guitartabs.cc/tabs/e/everclear/volvo_driving_soccer_mom_tab_ver_5.html ]
CHORUS (distortion)

E|-------------------------|
B|-------------------------|
G|-------------------------|
D|-10-10-6-6-5-5--3-3-3-3/-|
A|-10-10-6-6-5-5--3-3-3-3/-|
E|-8--8--4-4-3-3--1-1-1-1/-|

INTERLUDE (distorted, rhythm not shown for all power chords)
 parenthesis played first after a few times through
E|-----------------|
B|-----------------|
G|---------10-7-10-|
D|-(11)-10-10-7-10-|
A|-(11)-10-8--5-8--|
E|-(9)--8----------|

E|----------------------------------------------------------------|
B|----------------------------------------------------------------|
G|----------------10-10-10-10-9-9-7-7-7-7-10-10-10-10-------------|
D|-11-10-10-10-10-10-10-10-10-9-9-7-7-7-7-10-10-10-10-11-11-10-10-|
A|-11-10-10-10-10-8--8--8--8--7-7-5-5-5-5-8--8--8--8--11-11-10-10-|
E|-9--8--8--8--8--------------------------------------9--9--8--8--|
               more strums than shown| new mini-riff to end interlude
E|-----------------------------------|----12----12----12----|
B|-----------------------------------|-13----13----13----13-|
G|--------10-10-10-10-9-9-7-7-7-7-10-|----------------------|
D|--10-10-10-10-10-10-9-9-7-7-7-7-10-|----------------------|
A|--10-10-8--8--8--8--7-7-5-5-5-5-8--|----------------------|
E|--8--8-----------------------------|----------------------|

Song ends with first chord of the chorus a number of times, with new mini-riff over top
Comments