Everclear - Volvo Driving Soccer Mom Chords & Tabs

 

Volvo Driving Soccer Mom Chords & Tabs

Everclear Chords & Tabs

Version: 1 Type: Tab 0 ratings
1 star 2 stars 3 stars 4 stars 5 stars
comments

Volvo Driving Soccer Mom Tab


Everclear: Volvo Driving Soccer Mom
Slow Motion Day Dream: Track 4


              Intro           --------------
                              --------------
                              ---44---------    X 4   (then start verse)
                              ---44---------
                              ---22---------
                              --------------



     (gt.1)    Verse                            THEN
                     ----44-------------------         ---------------------------------- 
                     ----44--66--44--2--------   X 3   ----11-11--22-22-----------------------
                     ----22--66--44--2--------         ----11-11--22-22----------------------   
                     --------44--22--0--------         -----------00-00----------------------


     (gt.2)   verse
                   -------------------------
                   -------------------------
                   --------13---------------
                   ---9---------9-----------
                   -------------------------
                   -------------------------  
            
                 

           Chorus  --------------------------    gt 2  chorus is the same as verse       
                    -------------------------
                    ----44--66--66--44-------------
                    ----44--66--44--44--------
                    ----22--44--44--22--------                         
                   -------------------------
                   -------------------------
                  





      Interlude      "where do all.."       1st time
                       
                       --------------------------------------------------------------
                       --------------------------------------------------------------
                       -44444444/99999999--------------------------------------------
                       -44444444/99999999-1111111111111111---------------------------
                       -22222222/77777777-1111111111111111---------------------------
                       ------------------- 9 9-9-9-9-9-9-9---------------------------
[ Tab from: http://www.guitartabs.cc/tabs/e/everclear/volvo_driving_soccer_mom_tab.html ]
                                                                           5
           Everytime Art plays it except for the first time, he plays  a   5 chord, like this...
                                                                           3 
                             

                       --------------------------------------------------------------
                       --------------------------------------------------------------
                        5-44444444/99999999--------------------------------------------
                       -5-44444444/99999999-1111111111111111---------------------------
                       -3-22222222/77777777-1111111111111111---------------------------
                       ----------------------9 9-9-9-9-9-9-9---------------------------


        The last 4  times he plays it, its like this. With the same sort of rythem from the verses
                       
                            Gt. 1 plays                                        
                           ---------------------------------       
                            --------------------------------       
                            --------------------------------      
                            ---44---99---1111---------------               
                            ---44---99---1111---------------        
                            ---22---77---1111---------------       
                            --------------9-9---------------        
                  

                   and the last two times he plays it, gt. 2 comes in with...
              
                     ------------------            -------------------------
                     ------------------            -----16-----16-----------
                     ------------------            --------15-----15--------
                     --------13--------            -------------------------
                     -----9-----9------ X 4  THEN  -------------------------      
                     ------------------            -------------------------
                     ------------------            -------------------------




             They play the chorus again, i think twice. 

           

                   well, thats it. My first tab ever, finally done. Comments and complaints can be emailed 
                  
                                                                                  to vintageaxe@hotmail.com















                       
Comments