Everclear - Sunflowers Chords & Tabs

 

Sunflowers Chords & Tabs

Everclear Chords & Tabs

Version: 1 Type: Tab 0 ratings
1 star 2 stars 3 stars 4 stars 5 stars
comments

Sunflowers Tab

Song- “Sunflowers”
Album:  So Much for the Afterglow
Tabbed by Evergleam
p= pull off
Intro- distorted, starting at the A is the part which Art repeats a lot.
					   A-    rhyme figure 1
E-------------------------------------------------------------------------------
B--------------------------------------------------------------3----------------
G-----------5----5----5---------------------0----2----4p2p0----0----0----0------
D-----------5----7----5-------5----0----0----------------------x----2----0------
A--3--3--7s--------------7----5----2----2----------------------3----3-----------
E----------------------------------3----3---------------------------------------

The verse is the part after A but clean.

Chorus
     When you were a child…
E---3--3--3--3--3--3------------------7---------------------------8-------------
B---3--3--3--3--3--3-----7-------7-------7-----7-----8------8--------8------8---
G---0--0--0--0--0--0-----8-------8----------8--------9-------9----------9-------
D---0--0--0--0--0--0-----9-------9-------------------10-----10------------------
A---x--x--x--x--x--x------------------------------------------------------------
E---3--3--3--3--3--3------------------------------------------------------------
	I would die when…
E---3--3--3--3--3--3---------------7------------8------8------8----------------5
B---3--3--3--3--3--3------------7-----7-----7------8-----8------8--------------7
G---0--0--0--0--0--0-----8---8-----------8---------------------------9s7-------7
D---0--0--0--0--0--0-----9------------------------------------------------------
A---x--x--x--x--x--x------------------------------------------------------------
E---3--3--3--3--3--3------------------------------------------------------------

Verse 2 and the next chorus is like above
[ Tab from: http://www.guitartabs.cc/tabs/e/everclear/sunflowers_tab.html ]
At the end of the second chorus when Art says painting flowers in your room, I
remember you happy he starts a long haul of repeating the same chord as 16th notes.
I will put the chord under how many measures he plays it in order the song goes because it would be too long to write it all out.
Measure:    one      one     two      one    one    one       one    one
E------------8--------10------7--------7------8-------7--------7------8-----10s
B------------8--------10------8--------7------8-------8--------7------8-----10s
G------------9--------11------7--------8------9-------7--------8------9-----11s
D-------------------------------------------------------------------------------
A-------------------------------------------------------------------------------
E-------------------------------------------------------------------------------
The slide above takes a measure and then he quits for a measure and starts up again like below.
Measure: one    one   - one      one       two    -one      one       two       one
E--------7-------3-------5--------7--------3--------5--------7--------7-------5s
B--------8-------5-------7--------8--------5--------7--------8--------8-------7s
G--------7-------5-------7--------9--------5--------7--------9--------7-------7s
D-------------------------------------------------------------------------------
A-------------------------------------------------------------------------------
E-------------------------------------------------------------------------------

That should have ended at the part where he sings All I want to remember, sunflowers in your room.

Outro- Art repeats this part throughout along with rhyme figure one.

E---3-----5-------7p5p3----------
B---3-----3-------3--------------
G--------------------------------
D--------------------------------
A--------------------------------
E--------------------------------



Comments