Everclear - So Much For The Afterglow Chords & Tabs

 

So Much For The Afterglow Chords & Tabs

Everclear Chords & Tabs

Version: 2 Type: Tab 0 ratings
1 star 2 stars 3 stars 4 stars 5 stars
comments

So Much For The Afterglow Tab

   
So Much For The Afterglow
By Everclear
Off the CD "So Much For The Afterglow"
Tabbed by Chris Mickols (cmickols@hotmail.com)


Verse:
e|---------------------------------|
B|---------------------------------|
G|---------7-7-7-7---------4-4-4-4-|
D|-7-7-7-7-7-7-7-7-4-4-4-4-4-4-4-4-|
A|-7-7-7-7-5-5-5-5-4-4-4-4-2-2-2-2-|
E|-5-5-5-5---------2-2-2-2---------|
[ Tab from: http://www.guitartabs.cc/tabs/e/everclear/so_much_for_the_afterglow_tab_ver_2.html ]
Chorus:
e|-----------------------------------------------------------------|
B|-----------------------------------------------------------------|
G|---------7-7-7-7-9-9-9-9-7-7-7-7-6-6-6-6-7-7-7-7-4-4-4-4-7-7-7-7-|
D|-7-7-7-7-7-7-7-7-9-9-9-9-7-7-7-7-6-6-6-6-7-7-7-7-4-4-4-4-7-7-7-7-|
A|-7-7-7-7-5-5-5-5-7-7-7-7-5-5-5-5-4-4-4-4-5-5-5-5-2-2-2-2-5-5-5-5-|
E|-5-5-5-5---------------------------------------------------------|
 


If you have any of the leads e-mail them to me:
cmickols@hotmail.com

Check out my other tabs at:
http://members.aol.com/cmickols/
Comments