Everclear - So Much For The Afterglow Chords & Tabs

 

So Much For The Afterglow Chords & Tabs

Everclear Chords & Tabs

Version: 1 Type: Bass Tab 0 ratings
1 star 2 stars 3 stars 4 stars 5 stars
comments

So Much For The Afterglow Bass Tab

Band: Everclear 
Album: So Much For The Afterglow 
Song: So Much For The Afterglow 
jafergie@earthlink.net 
i can't remember what order everything goes in. so i'll 
just lay it all down for you people to figure out 

A|---------5-5-5-5--9-9-9-9---------7-7-7-7---5-5-5-5-| 
E|-5-5-5-5------------------7-7-7-7-------------------| 
[ Tab from: http://www.guitartabs.cc/tabs/e/everclear/so_much_for_the_afterglow_btab.html ]
A|---------5-5-5-5--7-7-7-7---5-5-5-5-| 
E|-5-5-5-5----------------------------| 

A|---------5-5-5-5----------5-5-5-5| 
E|-5-5-5-5---------7-7-7-7---------| 

A|----------5-5-5-5--7-7-7-7--5-5-5-5--4-4-4-4---5-5-5-5------------5-5-5-5| 
E|-5-5-5-5------------------------------------------------7-7-7-7----------| 

well it's all there. i'm pretty sure it's in order too. 
questions? 

Comments