Everclear - Short Blonde Hair Chords & Tabs

 

Short Blonde Hair Chords & Tabs

Everclear Chords & Tabs

Version: 2 Type: Tab 0 ratings
1 star 2 stars 3 stars 4 stars 5 stars
comments

Short Blonde Hair Tab

Short Blonde Hair
Songs From An Amerian Movie Volume 2: Goo Time For A Bad Attitude
Words By Art Alexakis 
Music By Everclear

NOTE: ALL STRINGS TUNED DOWN 1/2 STEP

eb -5--------------------------------------------
Bb -6--------------------------------------------
Gb -7--------------------------------------------
Db -7--------------------------8-8-8-8-8-8-8-8-8-
Ab -5--------------------------8-8-8-8-8-8-8-8-8-
Eb ----------------------------6-6-6-6-6-6-6-6-6-
[ Tab from: http://www.guitartabs.cc/tabs/e/everclear/short_blonde_hair_tab_ver_2.html ]
Eb ----5------------------------------------------
Bb ----6------------------------------------------
Gb ----7------------------------------------------
Db 8---7--------8-8---5---8-8-8-8-8-8-8-----------
Ab 8---5--------8-8---5---8-8-8-8-8-8-8-----------
Eb 6------------6-6-\-3-/-6-6-6-6-6-6-6-----------

            play the above twice

Eb -----------------------------------------------
Bb -----------------------------------------------
Gb ---------------------------8-8-8--X------------
Db -3-3-3-3-3-3-3-3-3-3-------8-8-8--X----8-------
Ab -3-3-3-3-3-3-3-3-3-3-------6-6-6--X----8-------
Eb -1-1-1-1-1-1-1-1-1-1-------------------6-------

        play the above 3 times. 

PLAY EVERYTHING OVER AGAIN WITH MORE DESTORTON
Comments