Everclear - Santa Monica Chords & Tabs

 

Santa Monica Chords & Tabs

Everclear Chords & Tabs

Version: 4 Type: Tab 0 ratings
1 star 2 stars 3 stars 4 stars 5 stars
comments

Santa Monica Tab

Everclear,Santa Monica.
Tabbed by Chris Rucko,rucko@everclearfanatic.com.
  
your other tab here for santa monica is incorrect, this is the correct version.i don't have the solos,i working on those. enjoy.


Intro:

e|----------------------------------|
b|----------------------------------|
g|----------------------------------|
d|-55-555555-xxx-555555-xxx-5555-5--|
a|-55-555555-xxx-555555-xxx-5555-5--|
e|-33-330033-xxx-330033-xxx-3300-3--|

Verse:
"i'm still living..."
e|---------------------------------------------------
b|---------------------------------------------------
g|-----------------------------------------77-779955- d|-----55-555555-xxx-555555-555555-xxx-555577-779955-
a|-----55-555555-xxx-555555-555555-xxx-555555-557733-
e|-----33-330033-xxx-330033-330033-xxx-3300----------
[ Tab from: http://www.guitartabs.cc/tabs/e/everclear/santa_monica_tab_ver_4.html ]
  -------------------|
  -------------------|
  xxx-7755-----------|
  xxx-7755-55-5555-5-|
  xxx-5533-55-5555-5-|repeat verse as many times as
  ---------33-3300-3-| needed

Chorus:
"we can live..."  
e|---------------------------------------------------
b|---------------------------------------------------
g|------------77-xx-77-99-55-xx-55-99-77-xx-77-99----
d|------------77-xx-77-99-55-xx-55-99-77-xx-77-99-55-
a|------------55-xx-55-77-33-xx-33-77-55-xx-55-77-55-
e|------------------------------------------------33-

  -------------------------------------------|
  -------------------------------------------|
  -99-77-xx-77-99-55-xx-55-99-77-xx-77-99----|
  -99-77-xx-77-99-55-xx-55-99-77-xx-77-99-55-|
  -77-55-xx-55-77-33-xx-33-77-55-xx-55-77-55-|
  ----------------------------------------33-|
Repeat intro.

Verse two follows.
 
any question comments,corrections, please email me. 
:: Ultimate Guitar Archive :: 
http://www.ultimate-guitar.com 

Comments