Everclear - Santa Monica Chords & Tabs

 

Santa Monica Chords & Tabs

Everclear Chords & Tabs

Version: 1 Type: Tab 2 ratings
1 star 2 stars 3 stars 4 stars 5 stars
comments

Santa Monica Tab

many people have tabbed this song incorrectly and i'm %100 sure this is the right way
you'll need a capeo on the first fret and then play as follows.


e------------------------------------------
B------------------------------------------
G------------------------------------------
D-6-6-**-6-6-6-6-6-6-**---------------------------------
A-6-6-**-6-6-6-6-6-6-**---------------------------------
E-4-4-**-4-4-1-1-4-4-**---------------------------------

[ Tab from: http://www.guitartabs.cc/tabs/e/everclear/santa_monica_tab.html ]
 just get the beat down and it's not that hard to follow, then it hits...
 
e----------------------------------------
B----------------------------------------
G-8-8--**--8--10---6-6--*--8-----------------------
D-8-8--**--8--10---6-6--*--8-----------------------
A-6-6--**--6--8----4-4--*--6-----------------------
E-*-*--**--*--*----*-*--*--*-----------------------

then it goes back to the top. this is my first tab so if it's pretty sketchy (and i'm sure it is)
i apologize but other than that enjoy. this is a really good song by a really good band.
Comments