Everclear - Santa Monica Chords & Tabs

 

Santa Monica Chords & Tabs

Everclear Chords & Tabs

Version: 1 Type: Drum Tab 0 ratings
1 star 2 stars 3 stars 4 stars 5 stars
comments

Santa Monica Drum Tab

 Intro(Verse 1)
and an old suit case..	
  |-------12x------|-------3x-------|
HH|----------------|----x-------x---|----x-----------|
Ft|----------------|----------------|--------33333333|
                                             >>>>>>>>
Verse 2
                   |-------2x-------|             
CC|X---------------|----------------|X---------------|X---------------|
SD|----O----g--O--b|----O----g--O--b|----O----oooOOOO|----O-------O--b|
T2|-------2--------|-------2--------|-------2--------|-------2--------|
FT|--3-3-3-3-3-3-3-|3-3-3-3-3-3-3-3-|--3-3-3-3-------|--3-3-3-3-3-3-3-|
BD|o-o-----o--o----|o-o-----o--o----|o-o-----o-------|o-o-----o--o----|
                                  
CC|----------------|----------------|X---------------|
SD|----O-------O--b|----O----g--Fo--|------------F---|
T2|-------2--------|-------2------22|----------------|
FT|3-3-3-3-3-3-3-3-|3-3-3-3-3-3-----|----------------|
BD|o-o-----o--o----|o-o-----o--o----|o---------O---O-|

Chorus(2x vocals)
 Last 3 times no vocals
  |------11x-------|
C1|X---------------|
C2|X---X---X---X---|X---------------|
SD|----O--O----O---|------------F---|
BD|O-O-----O-O---O-|O---------O---O-|

Verse 3
                   |-------2x-------|
CC|X---------------|----------------|----------------|
HH|----x---x---x---|x---x---x---x---|x---x---x-------|
SD|----o--o----o---|----o--o----o---|----o--o--oooooo|
BD|o-o-----o-o---o-|o-o-----o-o---o-|o-o-----o-------|
[ Tab from: http://www.guitartabs.cc/tabs/e/everclear/santa_monica_drum.html ]
                   |-------2x-------|
C1|----------------|----------------|----------------|
C2|X---------------|X<-(2nd time)---|----------------|
HH|----x---x---x---|x---x---x---x---|x---------------|
SD|----o--o----o---|----o--o----o---|----oooooooooooo|
BD|o-o-----o-o---o-|o-o-----o-o---o-|o---------------|

Verse 4
                                    |---------------2x----------------|
  |-------3x-------|                |-------3x-------|
C1|X---------------|X---------------|X---------------|----------------|
C2|X---X---X---X---|X---X---X-------|X---X---X---X---|X---------------|
SD|----O--O----O---|----O--O--OOOOOO|----O--O----O---|-OOOOOOOOOOOOOOO|
BD|O-O-----O-O---O-|O-O-----O-------|O-O-----O-O---O-|O---------------|

Chorus
  |-------2x-------|
C1|X---------------|X---------------|----------------|
C2|X---X---X---X---|X---X---X---X---|X---X---X-------|
SD|----O--O----O---|----O--O----O-OO|----O--O--OOOOOO|
BD|O-O-----O-O---O-|O-O-----O-O-----|O-O-----O-------|
  
  |-------2x-------|
C1|X---------------|X---------------|----------------|
C2|X---X---X---X---|X---X---X-------|X---------------|
SD|----O--O----O---|----O--O--OOOOOO|-OOOOOOOOOOOOOOO|
BD|O-O-----O-O---O-|O-O-----O-------|O---------------|

  |-------2x-------|
C1|X---------------|X---------------|----------------|
C2|X---X---X---X---|X---X---X---X---|X---X---X-------|
SD|----O--O----O---|----O--O----O-OO|----O--O--OOOOOO|
BD|O-O-----O-O---O-|O-O-----O-O-----|O-O-----O-------|

  |-------2x-------|                
C1|X---------------|X---------------|
C2|X---X---X---X---|X---X---X-------|
SD|----O--O----O---|----O--O--OOOOOO|
BD|O-O-----O-O---O-|O-O-----O-------|

Outro
  |----------------4x---------------|
C1|----------------|X---------------|X---------------|----------------|
C2|X---X---X---X---|X---X---X-------|X---------------|----------------|
SD|----O--O----O---|----O--O--OOOOOO|----------------|---------------F|
BD|O-O-----O-O---O-|O-O-----O-------|O---------------|----------------|

	
Comments