Everclear - Out Of My Depth Chords & Tabs

 

Out Of My Depth Chords & Tabs

Everclear Chords & Tabs

Version: 1 Type: Tab 0 ratings
1 star 2 stars 3 stars 4 stars 5 stars
comments

Out Of My Depth Tab

   
Everclear
"Out Of My Depth"
Songs From An American Movie Vol 2:
Good Time For a Bad Attitude
Lyrics By Art Alexakis 
Music By Everclear**Detune 1/2 step to "Eb"**

Intro 
--Just a "B" strumed (ie - strum a C-shape chord - Jason) 

Verse Riff
     B               Bb7             E               Gb
eb|--0-0-0-0-0-0-0-0-2-2-2-2-2-2-2-2-1-1-1-1-1-1-1-1-3-3-3-3-3-3-3-3-|
Bb|--1-1-1-1-1-1-1-1-0-0-0-0-0-0-0-0-1-1-1-1-1-1-1-1-3-3-3-3-3-3-3-3-|
Gb|--0-0-0-0-0-0-0-0-2-2-2-2-2-2-2-2-2-2-2-2-2-2-2-2-0-0-0-0-0-0-0-0-|
Db|--2-2-2-2-2-2-2-2-1-1-1-1-1-1-1-1-3-3-3-3-3-3-3-3-0-0-0-0-0-0-0-0-|
Ab|--3-3-3-3-3-3-3-3-2-2-2-2-2-2-2-2-3-3-3-3-3-3-3-3-2-2-2-2-2-2-2-2-|
Eb|----------------------------------1-1-1-1-1-1-1-1-3-3-3-3-3-3-3-3-|
  |                                                                  |
  |----------3---------------2---------------1---------------3-------|
  |------1-----1---1-----0-----0---0---------------------3-----3---3-|
  |----0---0-----0-----2---2-----2-------2-----2---2---0---0-----0---|
  |------------------------------------3---3-----3-------------------|
  |--3---------------2-----------------------------------------------|
  |----------------------------------1---------------3---------------|
[ Tab from: http://www.guitartabs.cc/tabs/e/everclear/out_of_my_depth_tab.html ]
Pre-Chorus Riff("Something bad is going to happen......")
   G#              C#              E                       B      Gb      G
|----------------------------------------------------------------------------|
|----------------------------------------------------------------------------|
|------------------7-7-7-7-7-7-7-7-10-10-10-10-10-10-10-10-5-5-5-5-----------|
|--7-7-7-7-7-7-7-7-7-7-7-7-7-7-7-7-10-10-10-10-10-10-10-10-5-5-5-5-5-5-5--6--|
|--7-7-7-7-7-7-7-7-5-5-5-5-5-5-5-5-8--8--8--8--8--8--8--8--3-3-3-3-5-5-5--6--|
|--5-5-5-5-5-5-5-5-------------------------------------------------3-3-3--4--|

Chorus Riff Part 1("I am in over my head.....")("I'm Out of my depth...")
   G#      C#  E      | B      Gb    G
|---------------------|------------------|
|---------------------|------------------| 
|----------7-x-10-10-x|-5-5-5-5----------|  
|--7-7-x-x-7-x-10-10-x|-5-5-5-5-5-5-5-6--|  
|--7-7-x-x-5-x-8--8--x|-3-3-3-3-5-5-5-6--|
|--5-5-x-x------------|---------3-3-3-4--| 
                      |

Solo ???? 


Outro Riff
   Esus           Bmaj
|--x--x--x--x--x--x--x--x--x--x--|
|--8--8--8--8--8--x--x--x--x--x--|
|--10-10-10-10-10-9--9--9--9--9--|
|--10-10-10-10-10-10-10-10-10-10-|
|--8--8--8--8--8--10-10-10-10-10-|
|--x--x--x--x--x--8--8--8--8--8--|


Comments