Everclear - Nervous And Weird Chords & Tabs

 

Nervous And Weird Chords & Tabs

Everclear Chords & Tabs

Version: 1 Type: Tab 0 ratings
1 star 2 stars 3 stars 4 stars 5 stars
comments

Nervous And Weird Tab

Nervous and Weird
By Everclear
Off the CD "World Of Noise"
Tabbed by Chris Mickols (cmickols@hotmail.com)
[ Tab from: http://www.guitartabs.cc/tabs/e/everclear/nervous_and_weird_tab.html ]
Verse:
e|-------------------------------------------------------------------|
B|-------------------------------------------------------------------|
G|---------5-5-5-----------4-4-4-4----------5-5-5--------------------|
D|-2--2-2--5-5-5--5-5-5-5--4-4-4-4--2--2-2--5-5-5--5-5-5-5--7-7-7-7--|
A|-2--2-2--3-3-3--5-5-5-5--2-2-2-2--2--2-2--3-3-3--5-5-5-5--7-7-7-7--|
E|-0--0-0---------3-3-3-3-----------0--0-0---------3-3-3-3--5-5-5-5--|
 
Chorus:
e|----------------|
B|----------------|
G|----------------|
D|-2-2-2---6-6-6--|
A|-2-2-2---6-6-6--|
E|-0-0-0---4-4-4--|
 
If you think I am missing parts to this song or you have accurate tabs
for the solo e-mail them to me:
cmickols@hotmail.com

Check out my other tabs at:
http://members.aol.com/cmickols
Comments