Everclear - Loser Makes Good Chords & Tabs

 

Loser Makes Good Chords & Tabs

Everclear Chords & Tabs

Version: 1 Type: Tab 0 ratings
1 star 2 stars 3 stars 4 stars 5 stars
comments

Loser Makes Good Tab

   
Loser Makes Good
As recorded by Everclear on "World of Noise"
Tabbed by Ashton Bailey (ashton_bailey@hotmail.com) and Steve Smith (sesmith3@eos.ncsu.edu)

VERSION 1 - Tabbed by Ashton Bailey

Key:
pm = palm mute
\ = slide up towards the neck
/ = slide down towards the body
fb = feedback
h = hammer
b = bend string
r = ring (let string ring)
v = strum down
^ = strum up
~ = Hold Note

Intro Guitar 1 (Clean w/Chorus)
e|-------------------------------------|
B|------1--------3--------1-------3----|
G|--------0--------0--------0-------0--|
D|----2--------0--------2-------0------|
A|--3-----------------3----------------|
E|-----------3----------------3--------|
        C        G      C        G

e|-------------------------------------|
B|------1--------3--------1-------3----|
G|--------0--------0--------0-------0--|
D|----2--------0--------2-------0------|
A|--3-----------------3----------------|
E|-----------3----------------3--------|
        C        G      C        G
         I hate waking up, it means that I have to die again tonight

e|------------------------------------|
B|------1-------0--------1-------0----|
G|----2---2-------1----2---2-------1--|
D|--3---------2------3---------2------|
A|----------2----------------2--------|
E|------------------------------------|
      F       Em       F       Em
   35 years old and I'm still sleeping outside

e|-------------------------------------|
B|------1--------3--------1-------3----|
G|--------0--------0--------0-------0--|
D|----2--------0--------2-------0------|
A|--3-----------------3----------------|
E|-----------3----------------3--------|
        C        G      C        G
   Yeah I think I know your face, I don't want to know your name

e|-----------------------------------------------------|
B|------1-------0--------1-------0--------1-------0----|
G|----2---2-------1----2---2-------1----2---2-------1--|
D|--3---------2------3---------2------3---------2------|
A|----------2----------------2----------------2--------|
E|-----------------------------------------------------|
      F       Em       F       Em       F        Em
   I won't give in, I'm not like that, I won't give in

Main Verse (Guitar 1)
e|--0-0-0-0-----------0-0-0-0-----------|
B|--1-1-1-1--0-0-3-0--1-1-1-1--0-0-3-0--|
G|--0-0-0-0--0-0-0-0--0-0-0-0--0-0-0-0--|
D|--2-2-2-2--0-0-0-0--2-2-2-2--0-0-0-0--|
A|--3-3-3-3--2-2-2-2--3-3-3-3--2-2-2-2--|
E|-----------3-3-3-3-----------3-3-3-3--|
 |                                      |
e|------8-0--3-0-7-5------8-0--3-0-7-5--|
B|--------------------------------------|
G|--------------------------------------|
D|--------------------------------------|
A|--------------------------------------|
E|--------------------------------------|
       C        G        C        G

e|--0-0-0-0-----------0-0-0-0-----------|
B|--1-1-1-1--0-0-3-0--1-1-1-1--0-0-3-0--|
G|--0-0-0-0--0-0-0-0--0-0-0-0--0-0-0-0--|
D|--2-2-2-2--0-0-0-0--2-2-2-2--0-0-0-0--|
A|--3-3-3-3--2-2-2-2--3-3-3-3--2-2-2-2--|
E|-----------3-3-3-3-----------3-3-3-3--|
 |                                      |
e|------8-0--3-0-7-5------8-0--3-0-7-5--|
B|--------------------------------------|
G|--------------------------------------|
D|--------------------------------------|
A|--------------------------------------|
E|--------------------------------------|
       C        G        C        G

(All chords in this verse also played by a second guitar palm muted)
e|-------------------------------------|
B|------1--------3--------1-------3----|
G|--------0--------0--------0-------0--|
D|----2--------0--------2-------0------|
A|--3-----------------3----------------|
E|-----------3----------------3--------|
        C        G      C        G
     You say it's Christmas Eve, that don't mean nothing to me
e|------------------------------------|
B|------1-------0--------1-------0----|
G|----2---2-------1----2---2-------1--|
D|--3---------2------3---------2------|
A|----------2----------------2--------|
E|------------------------------------|
      F       Em       F       Em
     Just another fucked up day, just another waste of time
e|-------------------------------------|
B|------1--------3--------1-------3----|
G|--------0--------0--------0-------0--|
D|----2--------0--------2-------0------|
A|--3-----------------3----------------|
E|-----------3----------------3--------|
        C        G      C        G
    You wonder why I live like this, man you just won't understand
e|-----------------------------------------------------|
B|------1-------0--------1-------0--------1---4-4-4-4--|
G|----2---2-------1----2---2-------1----2---2-5-5-5-5--|
D|--3---------2------3---------2------3-------6-6-6-6--|
A|----------2----------------2----------------6-6-6-6--|
E|-----------------------------------------------------|
      F       Em       F       Em       F        Ab
    I won't give in, I'm not like that, yeah I won't give in

Chorus
e|--3--3-3-3---4---5--5-5-5---1--1--|
B|--5--5-5-5---4---7--7-7-7---1--1--|
G|--5--5-5-5---5---7--7-7-7---2--2--|
D|--5--5-5-5---6---7--7-7-7---3--3--|
A|--3--3-3-3---6---5--5-5-5---3--3--|
E|-------------4--------------1--1--|
        C      Ab     D         F
[ Tab from: http://www.guitartabs.cc/tabs/e/everclear/loser_makes_good_tab.html ]
e|--3--3-3-3---4---5--5-5-5---1--1--|
B|--5--5-5-5---4---7--7-7-7---1--1--|
G|--5--5-5-5---5---7--7-7-7---2--2--|
D|--5--5-5-5---6---7--7-7-7---3--3--|
A|--3--3-3-3---6---5--5-5-5---3--3--|
E|-------------4--------------1--1--|
        C      Ab      D        F

e|--3--3--3--x-x---5--5--5--x-x---8--8--8--x-x----4----3--|
B|--5--5--5--x-x---7--7--7--x-x---10-10-10-x-x----4----3--|
G|--5--5--5--x-x---7--7--7--x-x---10-10-10-x-x----5----4--|
D|--5--5--5--x-x---7--7--7--x-x---10-10-10-x-x----6----5--|
A|--3--3--3--x-x---5--5--5--x-x---8--8--8--x-x----6----5--|
E|-----------------------------------------x-x----4----3--|
       C              D              F           Ab    G

Main Verse
e|--0-0-0-0-----------0-0-0-0-----------|
B|--1-1-1-1--0-0-3-0--1-1-1-1--0-0-3-0--|
G|--0-0-0-0--0-0-0-0--0-0-0-0--0-0-0-0--|
D|--2-2-2-2--0-0-0-0--2-2-2-2--0-0-0-0--|
A|--3-3-3-3--2-2-2-2--3-3-3-3--2-2-2-2--|
E|-----------3-3-3-3-----------3-3-3-3--|
 |                                      |
e|------8-0--3-0-7-0------8-0--3-0-7-0--|
B|--------------------------------------|
G|--------------------------------------|
D|--------------------------------------|
A|--------------------------------------|
E|--------------------------------------|
       C        G        C        G

e|--0-0-0-0-----------0-0-0-0-----------|
B|--1-1-1-1--0-0-3-0--1-1-1-1--0-0-3-0--|
G|--0-0-0-0--0-0-0-0--0-0-0-0--0-0-0-0--|
D|--2-2-2-2--0-0-0-0--2-2-2-2--0-0-0-0--|
A|--3-3-3-3--2-2-2-2--3-3-3-3--2-2-2-2--|
E|-----------3-3-3-3-----------3-3-3-3--|
 |                                      |
e|------8-0--3-0-7-0------8-0--3-0-7-0--|
B|--------------------------------------|
G|--------------------------------------|
D|--------------------------------------|
A|--------------------------------------|
E|--------------------------------------|
       C        G        C        G

Guitar 1 plays the same just not barre chords, plus it's palm muted

Guitar 2 (Distorted)
    (---Palm Mute--)
e|-------------------| x2
B|-------------------|
G|--5-5-5-5----------|
D|--5-5-5-5-5-5-5-5--|
A|--3-3-3-3-5-5-5-5--|
E|----------3-3-3-3--|
       C       G
  You smart-ass college fuck
  Act like you think you're tall

    (--Palm Mute---)
e|-------------------| x2
B|-------------------|
G|-------------------|
D|--3-3-3-3-2-2-2-2--|
A|--3-3-3-3-2-2-2-2--|
E|--1-1-1-1-0-0-0-0--|
       F       E5
   I was just like you
 More Pride than you could know

    (---Palm Mute--)
e|-------------------| x2
B|-------------------|
G|--5-5-5-5----------|
D|--5-5-5-5-5-5-5-5--|
A|--3-3-3-3-5-5-5-5--|
E|----------3-3-3-3--|
       C       G
    You think you pity me
   Hey I'll kick your ass if you pity me

    (--Palm Mute---)
e|-------------------| x2
B|-------------------|
G|-------------------|
D|--3-3-3-3-2-2-2-2--|
A|--3-3-3-3-2-2-2-2--|
E|--1-1-1-1-0-0-0-0--|
       F       E5
    I won't give in
     I'm not like that

    (--Palm Mute---)
e|-------------------|
B|-------------------|
G|-------------------|
D|--3-3-3-3-6-6-6-6--|
A|--3-3-3-3-6-6-6-6--|
E|--1-1-1-1-4-4-4-4--|
       F       Ab
 No I won't give in to you

Chorus
e|--3--3-3-3---4---5--5-5-5---1--1--|
B|--5--5-5-5---4---7--7-7-7---1--1--|
G|--5--5-5-5---5---7--7-7-7---2--2--|
D|--5--5-5-5---6---7--7-7-7---3--3--|
A|--3--3-3-3---6---5--5-5-5---3--3--|
E|-------------4--------------1--1--|
        C      Ab     D         F

e|--3--3-3-3---4---5--5-5-5---1--1--|
B|--5--5-5-5---4---7--7-7-7---1--1--|
G|--5--5-5-5---5---7--7-7-7---2--2--|
D|--5--5-5-5---6---7--7-7-7---3--3--|
A|--3--3-3-3---6---5--5-5-5---3--3--|
E|-------------4--------------1--1--|
        C      Ab     D         F

e|--3--3-3-3---4---5--5-5-5---1--1--|
B|--5--5-5-5---4---7--7-7-7---1--1--|
G|--5--5-5-5---5---7--7-7-7---2--2--|
D|--5--5-5-5---6---7--7-7-7---3--3--|
A|--3--3-3-3---6---5--5-5-5---3--3--|
E|-------------4--------------1--1--|
        C      Ab      D        F

e|--3--3--3--x-x---5--5--5--x-x---8--8--8--x-x----4----3--|
B|--5--5--5--x-x---7--7--7--x-x---10-10-10-x-x----4----3--|
G|--5--5--5--x-x---7--7--7--x-x---10-10-10-x-x----5----4--|
D|--5--5--5--x-x---7--7--7--x-x---10-10-10-x-x----6----5--|
A|--3--3--3--x-x---5--5--5--x-x---8--8--8--x-x----6----5--|
E|-----------------------------------------x-x----4----3--|
       C              D              F           Ab    G


Outro
e|--0-0-0-0-----------0-0-0-0-----------|
B|--1-1-1-1--0-0-3-0--1-1-1-1--0-0-3-0--|
G|--0-0-0-0--0-0-0-0--0-0-0-0--0-0-0-0--|
D|--2-2-2-2--0-0-0-0--2-2-2-2--0-0-0-0--|
A|--3-3-3-3--2-2-2-2--3-3-3-3--2-2-2-2--|
E|-----------3-3-3-3-----------3-3-3-3--|
       C        G        C        G

e|--0-0-0-0-----------0-0-0-0-----------|
B|--1-1-1-1--0-0-3-0--1-1-1-1--0-0-3-0--|
G|--0-0-0-0--0-0-0-0--0-0-0-0--0-0-0-0--|
D|--2-2-2-2--0-0-0-0--2-2-2-2--0-0-0-0--|
A|--3-3-3-3--2-2-2-2--3-3-3-3--2-2-2-2--|
E|-----------3-3-3-3-----------3-3-3-3--|
       C        G        C        G
    Just go away             Just go away

e|--------------------|
B|------1--------3----|
G|--------0--------0--|
D|----2--------0------|
A|--3-----------------|
E|-----------3--------|
        C        G

e|--------------------|
B|------1--------3----|
G|--------0--------0--|
D|----2--------0------|
A|--3-----------------|
E|-----------3--------|
        C        G
       You college boy

e|-------------------|
B|------1-------0----|
G|----2---2-------1--|
D|--3---------2------|
A|----------2--------|
E|-------------------|
      F       Em
   act like you think you're tall

I won't give in, I'm not like that
I won't give in

End on this
e|------------4~--|
B|----------4~----|
G|--------5~------|
D|------6~--------|
A|----6~----------|
E|--4~------------|
Comments