Everclear - Lame Chords & Tabs

 

Lame Chords & Tabs

Everclear Chords & Tabs

Version: 1 Type: Tab 0 ratings
1 star 2 stars 3 stars 4 stars 5 stars
comments

Lame Tab

   
Lame
Lyrics By Art Alexakis
Muisc By Everclear



Chords used:
   F#6  G    G6   A   B   C   D  Asus2 Bsus2 Csus2 Dsus2
e|------3---------0---2---3---5----0-----2-----3-----5--|
B|-2----3----3----2---4---5---7----0-----2-----3-----5--|
G|-3----4----4----2---4---5---7----2-----4-----5-----7--|
D|-4----5----5----2---4---5---7----2-----4-----5-----7--|
A|-4----5----5----0---2---3---5----0-----2-----3-----5--|
E|-x----3----x------------------------------------------|

(Intro)
(Drums for 7 seconds then, with an acousticish sounding guitar)
  F#6 G6
e|-------------------------------|
B|--2\3--3--3--3--3--3--3--3--3--|
G|--3\4--4--4--4--4--4--4--4--4--|
D|--4\5--5--5--5--5--5--5--5--5--|
A|--4\5--5--5--5--5--5--5--5--5--|
E|--x-x--x--x--x--x--x--x--x--x--| 

G6		      Csus2
Then they came on me, dragged me from the bar,
G6
Still wet from sweat and beer.
Csus2                   G6 
I bruise so prettily by men blinded by their fear.
Csus2     G6				Csus2   Bsus2  Dsus2 
These men Broke my back and made me lame. 
Csus2   Bsus2  Dsus2 
Lame. 
Csus2   Bsus2  Asus2 	G6
Lame-ame. 

G6			Csus2  Bsus2 Asus2      
Then she said to me,	"I'd give you everything
   G6			Csus2  Bsus2 Asus2
to make it like before, To make you love me like you 
G6                                Csus2 Bsus2 Asus2 G6
used to, make you love me more."  She said to me
				    Csus2 Bsus2 Dsus2				
Your life is large but your mind is lame 
Csus2 Bsus2 Dsus2
Lame.
Csus2 Bsus2 Asus2  G
Lame
[ Tab from: http://www.guitartabs.cc/tabs/e/everclear/lame_tab.html ]
(Two guitars are used now. One is distorted and plays major chords. The other (acoustic) 
plays the suspended and sixth chords. The tab below shows the acoustic guitar's 
chords. ie. so if the tab shows G6, that is what the acoustic guitar is playing. 
The distorted guitar is playing G. So if the acoustic guitar is playing Csus2, 
the distorted guitar plays C. etc.) 

G6 	
		I can't believe my eyes  	
G6				 Csus2  Bsus2 Asus2  G6
I can't believe my eyes, When I see the truth 
					Csus2  Bsus2 Asus2  G6
and all the things I've done.	And every place I'm queer.
			  Csus2 Bsus2 Asus2 G6        	
I never stay I run. I know now why I live in shame 
Csus2 Bsus2 Dsus2
Lame.
Csus2 Bsus2 Dsus2
Lame.
Csus2 Bsus2 Asus2  G6
Lame			 		Yeah, I live in shame!
Csus2 Bsus2 Dsus2
Lame.
Csus2 Bsus2 Dsus2
Lame.
Csus2 Bsus2 Asus2  G6
Lame-ame.			 
(Distorted guitar fades out)

  F#6 G6
e|----------0-----------------|
B|--2\3-------3---------------|
G|--3\4---------0-------------|
D|--4\5-----------------------|
A|--4\5-----------------------|
E|--x-x-----------------------|
	       It's hard to sleep at night
  F#6 G6
e|-----------------0----------|
B|--2\3------3--------3-------|
G|--3\4---------4--------0----|
D|--4\5-----------------------|
A|--4\5-----------------------|
E|--x-x-----------------------|
	       I hardly ever sleep at night 
  F#6 G6                    F#6 G6 
e|-----------------0------------------|
B|--2\3------3--------3-------2\3-----|
G|--3\4---------4--------0----3\4-----|
D|--4\5-----------------------4\5-----|
A|--4\5-----------------------4\5-----|
E|--x-x-------------------------------|
Comments