Everclear - How To Win Friends And Influence People Chords & Tabs

 

How To Win Friends And Influence People Chords & Tabs

Everclear Chords & Tabs

Version: 2 Type: Tab 0 ratings
1 star 2 stars 3 stars 4 stars 5 stars
comments

How To Win Friends And Influence People Tab

   
Everclear
Slow Motion Daydream
How To Win Friends And Influence People
Written By Art Alexakis
Music By Everclear
Tabbed By JR (soggypeaches@yahoo.com)


NOTE: All Guitars Tuned To Drop D  Step Down 


GUITAR 1 (Clean Electric)
e---------------------------------------------------------
b---------------------------------------------------------
g-7-7-7-7-7-7-7---7-7-7-7-7-7-7---7-7-7-7-7-7-7-7-7-7-7-7
d---------------------------------7-7-7-7-7-7-7-7-7-7-7-7
a-5-5-5-5-5-5-5---5-5-5-5-5-5-5---------------------------
d---------------------------------------------------------
|
|
GUITAR 2 (Accoustic)
e---------------------------------------------------------
b---------------------------------------------------------
g-7-7-7-7-7-7----7-7-7-7-7-7-7---7-7-7-7-7-7-7-7-7-7-7-7-
d---------------------------------------------------------
a-5-5-5-5-5-5----5-5-5-5-5-5-5---5-5-5-5-5-5-5-5-5-5-5-5-
d---------------------------------------------------------

(NO MUSIC)
It's a Beautiful 



GUITAR 1
e-2-2-2-2-2-2-2-
b-3-3-3-3-3-3-3-
g-2-2-2-2-2-2-2-
d-0-0-0-0-0-0-0-
a-0-0-0-0-0-0-0-
d-0-0-0-0-0-0-0-
|
|
GUITAR 3
e-----------------8--10
b----------------------
g----------------------
d----------------------
a----------------------
d----------------------
 Day (yeah)
 And If You Look Up In The Air 
 You Can See The Sky
 It's a Beautiful Day (YEAH)

 And If You Stare At The Sun 
 You Would Burn Your Eyes

GUITAR 2
e----------------------------------------------
b----------------------------------------------
g-4~-------5~-------7-7-7-7-7-7-7-7-7-7-7-7-7-
d----------------------------------------------
a-2~-------3~-------5-5-5-5-5-5-5--5-5-5-5-5-5-
e----------------------------------------------
|
|
GUITAR 3
e8-10-------8-10---------------8-10------------8-10
b---------------------------------------------------
g---------------------------------------------------
d---------------------------------------------------
a---------------------------------------------------
d---------------------------------------------------

 I Do Not Believe in the things that I an not see 
 No I Do Not Believe in the pretty disguise
 Yeah To Tell You The Truth I Know There Is A Good Reason 
 For All OF Your Bad Dreams


GUITAR 4
e--------------------------------
b--------------------------------
g-7-7-7-7-7-7-7-5-77-5-7-7-5-7
d--------------------------------
a--------------------------------
d--------------------------------

GUITAR 2
e----------------------------------------------
b----------------------------------------------
g-4~-------5~-------7-7-7-7-7-7-7-7-7-7-7-7-7-
d----------------------------------------------
a-2~-------3~-------5-5-5-5-5-5-5--5-5-5-5-5-5-
e----------------------------------------------
|
|
GUITAR 3
e8-10-------8-10---------------8-10------------8-10
b---------------------------------------------------
g---------------------------------------------------
d---------------------------------------------------
a---------------------------------------------------
d---------------------------------------------------

 You Know That Its True
 People Love to tell you things that will 
 Break your

Guitar 1
e---------------------------------------------------------
b---------------------------------------------------------
g-7-7-7-7-7-7----7-7-7-7-7-7-7---7-7-7-7-7-7-7-7-7-7-7-7-
d---------------------------------------------------------
a-5-5-5-5-5-5----5-5-5-5-5-5-5---5-5-5-5-5-5-5-5-5-5-5-5-
d---------------------------------------------------------

Guitar 3
e8-10-------8-10---------------8-10------------8-10
b---------------------------------------------------
g---------------------------------------------------
d---------------------------------------------------
a---------------------------------------------------
d---------------------------------------------------
 Heart 
 Yeah people love to break your heart 
 AWW
GUITAR 1
e-2-2-2-2-2-2-2-
b-3-3-3-3-3-3-3-
g-2-2-2-2-2-2-2-
d-0-0-0-0-0-0-0-
a-0-0-0-0-0-0-0-
d-0-0-0-0-0-0-0-

Guitar 3
e8-10-------8-10---------------8-10------------8-10
b---------------------------------------------------
g---------------------------------------------------
d---------------------------------------------------
a---------------------------------------------------
d---------------------------------------------------

Yeah People Love to break your heart
[ Tab from: http://www.guitartabs.cc/tabs/e/everclear/how_to_win_friends_and_influence_people_tab_ver_2.html ]
GUITAR 2
e----------------------------------------------
b----------------------------------------------
g-4~-------5~-------7-7-7-7-7-7-7-7-7-7-7-7-7-
d----------------------------------------------
a-2~-------3~-------5-5-5-5-5-5-5--5-5-5-5-5-5-
e----------------------------------------------
|
|
GUITAR 3
e8-10-------8-10---------------8-10------------8-10
b---------------------------------------------------
g---------------------------------------------------
d---------------------------------------------------
a---------------------------------------------------
d---------------------------------------------------

I Do Not Believe in The things that I cannot see
No I Do Not Believe in the Pretty Disguise 

GUITAR 4
e--------------------------------
b--------------------------------
g-7-7-7-7-7-7-7-5-77-5-7-7-5-7
d--------------------------------
a--------------------------------
d--------------------------------

GUITAR 2
e----------------------------------------------
b----------------------------------------------
g-4~-------5~-------7-7-7-7-7-7-7-7-7-7-7-7-7-
d----------------------------------------------
a-2~-------3~-------5-5-5-5-5-5-5--5-5-5-5-5-5-
e----------------------------------------------
|
|
GUITAR 3
e8-10-------8-10---------------8-10------------8-10
b---------------------------------------------------
g---------------------------------------------------
d---------------------------------------------------
a---------------------------------------------------
d---------------------------------------------------
 
 Yeah To tell you the truth 
 I know there is a good reason for all 
 Of your bad dreams
 You know that its true
 Because People love to hit you When You Close 
 Your 

Guitar 1
e---------------------------------------------------------
b---------------------------------------------------------
g-7-7-7-7-7-7----7-7-7-7-7-7-7---7-7-7-7-7-7-7-7-7-7-7-7-
d---------------------------------------------------------
a-5-5-5-5-5-5----5-5-5-5-5-5-5---5-5-5-5-5-5-5-5-5-5-5-5-
d---------------------------------------------------------

Guitar 3
e8-10-------8-10---------------8-10------------8-10
b---------------------------------------------------
g---------------------------------------------------
d---------------------------------------------------
a---------------------------------------------------
d---------------------------------------------------
 
 Eyes, Yeah people love to hit you when close your eyes
 (you will never see it coming)

GUITAR 1
e-2-2-2-2-2-2-2-
b-3-3-3-3-3-3-3-
g-2-2-2-2-2-2-2-
d-0-0-0-0-0-0-0-
a-0-0-0-0-0-0-0-
d-0-0-0-0-0-0-0-

Guitar 3
e8-10-------8-10---------------8-10------------8-10
b---------------------------------------------------
g---------------------------------------------------
d---------------------------------------------------
a---------------------------------------------------
d---------------------------------------------------


Yeah 
(You Will Never See It Coming)
Yeah 

(No Music)
It's a Beautiful 

Guitars 1 and 3

e----------------------------------------
b----------------------------------------
g----------------------------------------
d-12-12-12-12-12-12-12-8-8-8-7-7-7-5-5-3-
a-12-12-12-12-12-12-12-8-8-8-7-7-7-5-5-3-
d-12-12-12-12-12-12-12-8-8-8-7-7-7-5-5-3-

  Day (yeah ee yeah)
  It's a Beautiful Day (yeah ee yeah)
  It's a Beautiful Day (yeah ee yeah)

(No Music)
It's a Beautiful Day

Guitar 2
Guitars 1 and 3

e----------------------------------------
b----------------------------------------
g----------------------------------------
d-12-12-12-12-12-12-12-8-8-8-7-7-7-5-5-3-
a-12-12-12-12-12-12-12-8-8-8-7-7-7-5-5-3-
d-12-12-12-12-12-12-12-8-8-8-7-7-7-5-5-3-
  Look Up The Sky Is Down 
  It's a Beautiful Day 
  Look Up The Sky Is Down 
 It's a Beautiful Day 
 It's a Beautiful Day 


Guitars 1 and 3

e----------------------------------------
b----------------------------------------
g----------------------------------------
d-12-12-12-12-12-12-12-8-8-8-7-7-7-5-5-3-
a-12-12-12-12-12-12-12-8-8-8-7-7-7-5-5-3-
d-12-12-12-12-12-12-12-8-8-8-7-7-7-5-5-3-

It's a Beautiful Day 
It's a Beautiful Day 
It's a Beautiful Day 
It's a Beautiful Day 

You Will Never See It Coming 

GUITAR 1
e-2-2-2-2-2-2-2-
b-3-3-3-3-3-3-3-
g-2-2-2-2-2-2-2-
d-0-0-0-0-0-0-0-
a-0-0-0-0-0-0-0-
d-0-0-0-0-0-0-0-
 Day Oh
 You Will Never See It Coming 
 Day Oh 
 You Will Never See It Coming 
 Oh
Comments