Everclear - Heroin Girl Chords & Tabs

 

Heroin Girl Chords & Tabs

Everclear Chords & Tabs

Version: 2 Type: Tab 0 ratings
1 star 2 stars 3 stars 4 stars 5 stars
comments

Heroin Girl Tab

Heroin Girl

  ------------------------------------------------------------------------

                                  [IMAGE]

ok, after a LONG stint on the DL this is finally back up and has been
overhauled!

e:---------------------------------
b:---------------------------------
g:---------------------------------
d:---------------------------------
a:-5--5--5--5--5--5--5--5----
e:-3--3--3--3--3--3--3--3----
[ Tab from: http://www.guitartabs.cc/tabs/e/everclear/heroin_girl_tab_ver_2.html ]
e:-------------------2----------0-----------------2---------------0--
b:-----------------------2---------0------0b2---------2-------------
g:--4--4--4--3----------------------3-------------------------------
d:--5--5--5--4-------------4--------------------------------4-------
a:--5--5--5--4-------------------------------------------------------
e:--3--3--3--2-------------------------------------------------------
repeat this for awhile

then:
e:--------------------------------------------------------------------
b:--------------------------------------------------------------------
g:--------------------------------------------------------------------
d:--7--7--7--7--6--6--4--4--7--7--7--7--5-------------------
a:--7--7--7--7--6--6--4--4--7--7--7--7--5-------------------
e:--5--5--5--5--4--4--2--2--5--5--5--5--3-------------------

I haven't got the solo down yet... it's coming later...

Let me know what you think about my page. Send mail by clicking here.
Comments