Everclear - Halloween Americana Chords & Tabs

 

Halloween Americana Chords & Tabs

Everclear Chords & Tabs

Version: 1 Type: Tab 0 ratings
1 star 2 stars 3 stars 4 stars 5 stars
comments

Halloween Americana Tab

Halloween Americana
Songs From An American Movie Vol 2: Good Time For A Bad Attitude
Music By Everclear

e--------------
b--------------
g-7-7-7--9-9-9-
d-7-7-7--9-9-9-             X3
a-5-5-5--7-7-7-
e--------------
[ Tab from: http://www.guitartabs.cc/tabs/e/everclear/halloween_americana_tab.html ]
e---------------------------------------------------------
b---------------------------------------------------------
g---------7-7-7------------5-5-5--------------------------
d-8-8-8---7-7-7----6-6-6---5-5-5---6-6-6----8-8-8---------
a-8-8-8---5-5-5----6-6-6---3-3-3---6-6-6----8-8-8---------
e-6-6-6------------4-4-4-----------4-4-4----6-6-6---------

e-------------------11---------11----------11-------------
b---3/-----------------11-11--------11-11------11-11-X-X-X
g---------------------------------------------------------
d---------------------------------------------------------
a---------------------------------------------------------
e---------------------------------------------------------

e-X-11-11\-----11---11---13--14        repeat 3X with out X
b----------------11------------
g------------------------------
d------------------------------
a------------------------------
e------------------------------
Comments