Everclear - Halloween Americana Chords & Tabs

 

Halloween Americana Chords & Tabs

Everclear Chords & Tabs

Version: 1 Type: Bass Tab 0 ratings
1 star 2 stars 3 stars 4 stars 5 stars
comments

Halloween Americana Bass Tab

Everclear - Halloween Americana (instumental)From the album
Songs From An American Movie Vol. 2: Good Time for a Bad Attitude
 
G|------------------------ 
D|------------------------                    3 X
A|--4--4--4--4h6--6--6----
E|------------------------  
 
 
Main Riff (play 4 times)
 
G|---------------------------------------------------------------------------------------
D|---------------------------------------------------------------------------------------
A|--4--4--4h6--6--6--6------------------------------------------------------------------- 
E|------------------------5--5--5--5h7--7--7-----3--3--3h6--6--6-----3--3--3h4--4--4-----
 
 
 
 
G|------------------------
D|------------------------       4 X
A|--4--4--4--4h6--6--6----
E| -----------------------  
 
 
         
G|-------------------------------------------------------------  
D|-------------------------------------------------------------  
A|---6-------------------------6--6--6--6--6--6- Hit along with the rhythm  
E|-------------------------------------------------------------
 
 
 
Play Main Riff 6 times
 
 
 
G| ---------------------- 
D| ----------------------       4 X
A| --4--4--4--4h6--6--6--
E| ----------------------
 
 
 
The rest of the song is played with just guitars!
 
Have fun and enjoy!!!  


[ Tab from: http://www.guitartabs.cc/tabs/e/everclear/halloween_americana_btab.html ]
Comments