Everclear - Fire Maple Song Chords & Tabs

 

Fire Maple Song Chords & Tabs

Everclear Chords & Tabs

Version: 3 Type: Tab 0 ratings
1 star 2 stars 3 stars 4 stars 5 stars
comments

Fire Maple Song Tab

   
Fire Maple Song
Words By Art P. Alexakis
Guitar By Art AlexakisIntro

e|---------------------
b|---------------------
g|----------------2----
d|--------1--3------3--

Main Riff

e|----------------------------------------------
b|----------------------------------------------
g|----------------------------------------------
d|-----------------------------4/6---6-6-6------
a|------------------6h7-------------------------
E|-----------6h7--------------------------------

e|-----------------------------------------------------
b|-----------------------------------------------------
g|-----------------------------------------------------
d|-------------------------4/6-------------------------
a|------------------6h7--------7-7-7-------------------
E|-----6h7--------------------------------------------- 

fill #1
[ Tab from: http://www.guitartabs.cc/tabs/e/everclear/fire_maple_song_tab_ver_3.html ]
e|---3b---------------------------
b|--------5-5-4-4-2-2-------------
g|--------------------------------

fill #2
e|------13------13--------------------------------
b|-----------------------14-----------------------
g|------------------------------12----------------
d|-----------12-----------------------------------

fill #3
e|---------------------------------
b|------5--5--5--5--5--5----------- 

fill #4
e|---x--x--x--12--12--12-----------
b|---x--x--x--12--12--12-----------
g|---x--x--x--12--12--12-----------
d|---x--x--x-----------------------

mini-solo
e|-----13--------------------12----------
b|----------12---14---15-------12--------
g|---------------------------------------
d|---------------------------------------

The choruses go

G#___C#____A___E
Now I can't smile.


I took the time to tab all these solos and riffs out, they arent necessarily perfect
 but you can use them, they are close enough if played right.
Comments