Everclear - Father Of Mine Chords & Tabs

 

Father Of Mine Chords & Tabs

Everclear Chords & Tabs

Version: 5 Type: Tab 0 ratings
1 star 2 stars 3 stars 4 stars 5 stars
comments

Father Of Mine Tab

Hey, this is just the rythm part, but it goes a little somethin like this,
(that means i think this is fairly close :))

Standard Tuning: EADGBA

(r)= rest
(sr) = short rest

Intro/Verse:
E||--------------------------------------------------------------
B||.-------------------------------------------------------------
G||---6--6--6-6-6-6(r)-10--10--10-10-10-10(r)-11--11--11-11-11(r)
D||---6--6--6-6-6-6(r)-10--10--10-10-10-10(r)-11--11--11-11-11(r)
A||.--4--4--4-4-4-4(r)-8 --8 --8 -8 -8 -8 (r)-9 --9 -- 9 -9 -9(r)
E||--------------------------------------------------------------
[ Tab from: http://www.guitartabs.cc/tabs/e/everclear/father_of_mine_tab_ver_5.html ]
                          4x
E|------------------------||
B|-----------------------.||
G|---8--8--8-8-8-8(r)-----||
D|---8--8--8-8-8-8(r)-----||
A|---6--6--6-6-6-6(r)----.||
E|------------------------||

Chorus:
                                                                     2x
E||------------------------------------------------------------------||
B||.----------------------------------------------------------------.||
G||---6--6--6-6-6-6--13-13--11-11--10--10--10-10-10--11(sr)--13(sr)--||
D||---6--6--6-6-6-6--13-13--11-11--10--10--10-10-10--11(sr)--13(sr)--||
A||.--4--4--4-4-4-4--11-11--9 -9- -8 --8 --8 -8 -8 --9 (sr)--11(sr)-.||
E||------------------------------------------------------------------||

that's all i have so far folks



Tabbed by Matt, aka Ceakoth
Comments