Everclear - Father Of Mine Chords & Tabs

 

Father Of Mine Chords & Tabs

Everclear Chords & Tabs

Version: 1 Type: Tab 1 rating
1 star 2 stars 3 stars 4 stars 5 stars
comments

Father Of Mine Tab

Song “Father of Mine”
Album-  So Much for the Afterglow
Tabbed by Evergleam- this is my favorite song

This tab is correct and has all parts of the song.
h= hammer on       p=pull off       s= slide        b= bend        pb= pre bend, then strike            bh= bend and hold for awhile
The verse is extremely simple so I’ll tell you the chords.  They all have their base note on the 5th string.
Db5   power chord on 4th fret
F5	power chord on 8th fret
Gb5	power chord on 9th fret
Eb5	power chord on 6th fret

Art does this three times and then the following

E-------------------------------------------------------------------------------
B-----------------------------------------------------------10-10--9-9---8-8-8-8
G--6--6--6-6-6-6--10-10-10-10--10--10--11-11-11-11-11-11-s--10-10--9-9---8-8-8-8
D--6--6--6-6-6-6--10-10-10-10--10--10--11-11-11-11-11-11-s--10-10--9-9---8-8-8-8
A--4--4--4-4-4-4--8---8--8--8---8---8---9--9--9--9--9--9—s---8--8--7-7---6-6-6-6
E-------------------------------------------------------------------------------
		Distorted
E--------------4-4---2-2---1-1-1-1---2-2---4-4---
B---6-6-6-6----4-4---2-2---1-1-1-1---2-2---4-4---	repeat a few times
G---6-6-6-6----5-5---3-3---2-2-2-2---3-3---5-5---	and then the last time
D---6-6-6-6----6-6---4-4---3-3-3-3---4-4---6-6---	add the mini solo below.
A---4-4-4-4----6-6---4-4---3-3-3-3---4-4---6-6----
E--------------4-4---2-2---1-1-1-1---2-2---4-4---

E---------------------------------------------------------------------------
B---8b-----6-------------------6--------------------------------------------
G----------------8----6h8----------8----6h8---------------------------------
D---------------------------------------------------6h8-----6h8p6p4---------
A---------------------------------------------------------------------------
E---------------------------------------------------------------------------
[ Tab from: http://www.guitartabs.cc/tabs/e/everclear/father_of_mine_tab.html ]
Verse two is just like above and then is goes to the bar chord progression and into an interlude with the bar chord progression for a background.



Here is the guitar solo, it takes awhile to get used to.





E---11b----9--------------------------------------------------------------------
B-------------11---9------------------------------------------------------------
G---------------------10----8----6----8b----8b---pb8----6------------6---8---pb8
D----------------------------------------------------------8---6---8------------
A-------------------------------------------------------------------------------
E-------------------------------------------------------------------------------





E----------------------------9-----9----11----9----11b----11bh------------------
B--------------------9h11p9------------------------------------9s---------6----9
G--6-------6----5s------------------------------------------------6----8--------
D------8------------------------------------------------------------------------
A-------------------------------------------------------------------------------
E-------------------------------------------------------------------------------

E-------------------------------------------------------------------------------
B--6----------------------------------------------------------------------------
G-----8---6------6-----8----8b--6-------------------------8---------------------
D-------------8---------------------8--6-----------8h10---8---10---8---10---8---
A------------------------------------------8---6h8------------10--------------11
E-------------------------------------------------------------------------------

It then goes into the interlude with the bar chord progression and then to a C#5 bar chord (9th fret) with a strumming pattern like the verse while Art is doing his YEAH’s.  It then goes to the bar chord progression and that’s it.   Very simple.





Comments