Eve 6 - Without You Here Chords & Tabs

 

Without You Here Chords & Tabs

Eve 6 Chords & Tabs

Version: 1 Type: Bass Tab 0 ratings
1 star 2 stars 3 stars 4 stars 5 stars
comments

Without You Here Bass Tab

   
			     Without you Here - Eve 6
Earth_Rave
earth_rave@myway.com

Tuning: EADG

Intro
G|--------|----------------------------------|
D|--------|----------------------------------|
A|--------|4444444444444444-2222222222222222-|
E|2-(x32)-|----------------------------------|

Verse 1
G|--------------------------------------------------------------|
D|--------------------------------------------------------------|
A|----------------4444444444444444-2222222222222222-(x2)--------|
E|2222222222222222---------------------------------------then-2-|

Pre-chorus
G|---------------------------------|
D|---------------------------------|
A|---------------------------------|
E|2-2220-02-2220-02-2220-02-2220-0-|

Chorus
G|-----------------------------------------------------------------------|
D|-----------------------------------------------------------------------|
A|--------44444444-2--1--2--1--2-1-(x2)---------44444444-2--1--2--444444-|
E|22222222------------------------------22222222-------------------------|
[ Tab from: http://www.guitartabs.cc/tabs/e/eve_6/without_you_here_btab.html ]
G|-------------------------------------|   |--------------------------|
D|-----------------1-------------------|   |Then-right-away-play-this:|
A|--------44444444----4--2-2222222-(2x)|   |--------------------------|
E|22222222-----------------------------|   |2-(x32) ------------------|

Verse 2
G|--------------------------------------------------|
D|--------------------------------------------------|
A|----------------4444444444444444-2222222222222222-|
E|2222222222222222----------------------------------|  (x2)

Chorus
G|-----------------------------------------------------------------------|
D|-----------------------------------------------------------------------|
A|--------44444444-2--1--2--1--2-1-(x2)---------44444444-2--1--2--444444-|
E|22222222------------------------------22222222-------------------------|

G|-------------------------------------|         |-|
D|-----------------1-------------------|         |-|
A|--------44444444----4--2-2222222-(4x)|         |-|
E|22222222-----------------------------|  End on |2|
Comments