Eve 6 - Tongue Tied Chords & Tabs

 

Tongue Tied Chords & Tabs

Eve 6 Chords & Tabs

Version: 1 Type: Bass Tab

Tongue Tied Bass Tab

   
-----------------------------------------------------------------------------
				 TONGUE TIED - Eve 6
-----------------------------------------------------------------------------

Title: Tongue Tied
Artist: Eve 6
Album: Eve 6

Instrument: 4 String Bass

Tabbed by: M'R7'N (sitnam2@hotmail.com)

Tuning: Standard ( E  A  D  G)

G|----------------||
D|----------------||
A|----------------||
E|2--22-/5--55-545||

Verse 1 x2
G|----------------|----------------||
D|----------------|----------------||
A|----------5-5-5-|--------7-7-7-7-||
E|7-7-7-7-7-------|7-7-7-7---------||

G|----------------|----------------||
D|----------------|----------------||
A|----------5-5-5-|----------------||
E|7-7-7-7-7-------|7-7-7-7-0-0-0-0-||

Pre Chorus
G|----------------||
D|----------------||
A|----------------||
E|2--22-/5-5555545||

cHORUSX2
G|----------------|----------------||
D|----------------|----------------||
A|----------------|----------------||
E|7-7-7-7-0-0-0-0-|5-5-5-5-0-0-0---||

G|----------------|----------------||
D|----------------|----------------||
A|--------7-7-7-7-|----------------||
E|7-7-7-7---------|5-5-5-5-0-0-0-0-||


Post Chorus 1
G|----------------|----------------||
D|----------------|----------------||
A|----------------|----------------||
E|7-7-7-7---4-4---|5-5-5-5---0-0---||

G|----------------|------------||
D|----------------|------------||
A|----------------|------------||
E|7-7-7-7---4-4---|5---5---5---||

Verse 1 x2
Pre Chorus
Chorus

Post Chorus 2
G|----------------||
D|----------------||
A|----------------||
E|7-7-7-7-7-7-7-7-||

[ Tab from: http://www.guitartabs.cc/tabs/e/eve_6/tongue_tied_btab.html ]
Bridge 1
G|----------------||
D|-----7----------||
A|5---------------||
E|-------5---5-4-5|| X3

G|----------------||
D|----------------||
A|7----7----7-7-7-||
E|----------------||

G|----------------||
D|-----7----------||
A|5-5-------------||
E|-------5---5-4-5|| X3

G|----------------||
D|----------------||
A|7---7---5--7-5-7||
E|----------------||

Interlude
G|----------------|--------||
D|----------------|--------||
A|----------5-5-5-|7-7-7-7-||
E|7-7-7-7-7-------|--------||X3

G|----------------|----------------||
D|----------------|----------------||
A|----------5-5-5-|7-7-7-7-9-9-9-9-||
E|7-7-7-7-7-------|----------------||


Bridge 2
G|----------------|----------------||
D|----------------|----------------||
A|----------------|----------------||
E|7-7-7-7-0-0-0-0-|5-5-5-5-0-0-0-0-||


G|----------------|----------------||
D|----------------|----------------||
A|----------------|----------------||
E|7-7-7-7-0-0-0-0-|5-5-5-5-0-0-0-5-||


G|----------------|----------------||
D|----------------|----------------||
A|----------------|----------------||
E|7-7-7-7-7-7-7-7-|5-5-5-5-0-0-0-0-||

G|----------------|----------------||
D|----------------|----------------||
A|----------------|----------------||
E|7-7-7-7-7-7-7-7-|5*------0///12**||

Chorus x2

Chorus Variation x4

G|----------------|----------------||
D|----------------|----------------||
A|----------------|----------------||
E|7-7-7-5-0-0-0-4-|5-5-5-4-0-0-0-5-||

Outro

G|----------------|----------------||
D|----------------|----------------||
A|----------------|----------------||
E|7-7-7-7---4-4---|5-5-5-5---0-0-5-||x3

G|----------------|----------------||
D|----------------|----------------||
A|----------------|----------------||
E|7-7-7-7---4-4---|5-5-5-5---0-0---||