Eve 6 - Think Twice Chords & Tabs

 

Think Twice Chords & Tabs

Eve 6 Chords & Tabs

Version: 3 Type: Tab 0 ratings
1 star 2 stars 3 stars 4 stars 5 stars
comments

Think Twice Tab

Think Twice - Eve 6

Standard tuning

Note: if covering this song, use distortion at your discretion.  It simply depends on 
angry you want to make this song sound.

Intro Chords (bass guitar):

Intro Picking:

e-11-14~-------11~----11-14~--------------|
B--------12-14---------------12-14~-------|
G-------------------------------------13~-|
D-----------------------------------------|
A-----------------------------------------|
E-----------------------------------------|

Verse : ("When all is said and done..." Bass chords

Palm Muted picking during pre-chorus ("think twice before you...")
(this isn't quite right, but it'll work)

e-------------------------------| x8
B-------------------------------|
G-----44-------------44---------|
D---------66-------------(6)----|
A--66---------66--66------------|
E-------------------------------|
   1      2       3       4 (on 4 slide on times 4 and 8)

Slide:

e(7-/-0)----| (stuff in parenthesis means it's your choice, both work)
B--7-/-0-----|
G(4-/-0)----|
D------------|
A------------|
E------------|

Chorus (distortion) (she spreads her love...):
e----------7~--------------------4~--------- x4    -----------|
B----------7~--------------------4~--------        -----------|
G----------7~-----------4-4-4-4-4~---------       -----------|
D--6-6-6-6-----2-2-2-2--4-4-4-4-----4-4-4-4       -(last)-6~-|
A--6-6-6-6-----2-2-2-2--2-2-2-2-----4-4-4-4       -(time)-6~-|
E--4-4-4-4-----0-0-0-0--------------2-2-2-2-       --------4~-|


Second Verse: After sustain: Palm muted clean crunch chords
("wait till the day...")
e--------------------------------|
B--------------------------------|
G---------------4444-------------|
D-6666---2222---4444--4444-------|
A-6666---2222---2222--4444-------|
E-4444---0000---------2222-------|

Prechorus riff (see above: "think twice...")

[ Tab from: http://www.guitartabs.cc/tabs/e/eve_6/think_twice_tab_ver_3.html ]
Chorus (distortion "she spreads her love"):
e----------7~-------------------4~-----------| x4
B----------7~-------------------4~-----------|
G----------7~----------4-4-4-4-4~-----------|
D--6-6-6-6----2-2-2-2--4-4-4-4-----4-4-4-4---|
A--6-6-6-6----2-2-2-2--2-2-2-2-----4-4-4-4---|
E--4-4-4-4----0-0-0-0--------------2-2-2-2---|


Bridge
("What is it you really want...")
e-----------------------------------------|
B-----------------------------------------|
G-----------------------------------------|
D-2-2-2-2-2-2-2-2-4-4-4-4-4-4-4-4-4-4--6~-|
A-2-2-2-2-2-2-2-2-4-4-4-4-4-4-4-4-4-4--6~-|
E-0-0-0-0-0-0-0-0-2-2-2-2-2-2-2-2-2-2--4~-|

e----------------------------|
B----------------------------|
G----4----4-----4-----4------|
D---4-4--4-4---4-4---4-4-6~-|
A------------2------------6--|  (sustain into breakdown)
E-4-----0----------2------4~-|

Breakdown: (starts with bass and into: "and took the stairs...")
e-11-14~-------11~--- x2 or -------------------------|
B--------12-14-------       -------------------------|
G--------------------       ----4----4-----4-----4---|
D--------------------       ---4-4--4-4---4-4---4-4--|
A--------------------       ------------2------------|
E--------------------       -4-----0----------2------|

Build Up: (palmed) ("Cuz she spread her love...")
e------------------------------------------|
B------------------------------------------|
G----------------------4-4-4-4------------|
D--6-6-6-6---2-2-2-2---4-4-4-4---4-4-4-4---|
A--6-6-6-6---2-2-2-2---2-2-2-2---4-4-4-4---|
E--4-4-4-4---0-0-0-0-------------2-2-2-2---|

("I've said enough...") (watch for rest at the end of second time)
e----------7~-------------------4~-----------| x2
B----------7~-------------------4~-----------|
G----------7~----------4-4-4-4-4~-----------|
D--6-6-6-6-----2-2-2-2-4-4-4-4-----4-4-4-4---|
A--6-6-6-6-----2-2-2-2-2-2-2-2-----4-4-4-4---|
E--4-4-4-4-----0-0-0-0-------------2-2-2-2---|


Outro (open chords: "think twice before you touch my girl"):
e------------------------------------------| x4
B------------------------------------------|
G----------------------4-4-4-4------------|
D--6-6-6-6---2-2-2-2---4-4-4-4---4-4-4-4---|
A--6-6-6-6---2-2-2-2---2-2-2-2---4-4-4-4---|
E--4-4-4-4---0-0-0-0-------------2-2-2-2---|

End On :
e--------------|
B--------------|
G--------------|
D4-/-2--------|
A4-/-2--------|
E2-/-0--------|
Comments