Eve 6 - Think Twice Chords & Tabs

 

Think Twice Chords & Tabs

Eve 6 Chords & Tabs

Version: 2 Type: Tab 0 ratings
1 star 2 stars 3 stars 4 stars 5 stars
comments

Think Twice Tab

Eve 6
Think Twice 
Tuning - standard
polishp@hotmail.com for questions



Intro Chords :

e------------------------------------
B------------------------------------
G------------------4-4-4-4-----------
D--6-6-6-6-2-2-2-2-4-4-4-4-4-4-4-4---
A--6-6-6-6-2-2-2-2-2-2-2-2-4-4-4-4---
E--4-4-4-4-0-0-0-0---------2-2-2-2---

Intro Picking : 

e-11-13--------11----11-13------------
B--------12-14-------------12-14------
G-----------------11--------------13--
D-------------------------------------
A-------------------------------------
E-------------------------------------

Verse : Clean Palm Muted

e------------------------------------
B------------------------------------
G------------------4-4-4-4-----------
D--6-6-6-6-2-2-2-2-4-4-4-4-4-4-4-4---
A--6-6-6-6-2-2-2-2-2-2-2-2-4-4-4-4---
E--4-4-4-4-0-0-0-0---------2-2-2-2---

Palm Muted picking during verse

e---------------------------------------------------  Goes something like that
B----------------------------------------5-5--------  hard to make out 
G-----3-3-4-4-6-6-3-3-4-4----3-3-4-4-6-6-----6-6-4-4
D-4-4-----------------------------------------------
A---------------------------------------------------
E---------------------------------------------------

Little thing :

e-------------
B--7-/-0------
G--4-/-0------
D-------------
A-------------
E-------------
[ Tab from: http://www.guitartabs.cc/tabs/e/eve_6/think_twice_tab_ver_2.html ]
Chorus : 
e-------------------------------------------
B----------777----------------444-----------
G---------------------4-4-4-4---------------
D--6-6-6-6----2-2-2-2-4-4-4-4-----4-4-4-4---
A--6-6-6-6----2-2-2-2-2-2-2-2-----4-4-4-4---
E--4-4-4-4----0-0-0-0-------------2-2-2-2---

Palm muted, same time as Chorus
e-------------------------
B-------------------------
G-4-----4----4-----4------
D-4-----4----4-----4------
A------------2------------
E-4-----0----------2------

Bridge : 2:23
What is it you really want.....
e-----------------------------------------
B-----------------------------------------
G-----------------------------------------
D-2-2-2-2-2-2-2-2-4-4-4-4-4-4-4-4-4-4--6~-
A-2-2-2-2-2-2-2-2-4-4-4-4-4-4-4-4-4-4--6~-
E-0-0-0-0-0-0-0-0-2-2-2-2-2-2-2-2-2-2--4~-

e-------------------------
B-------------------------
G----4----4-----4-----4---
D---4-4--4-4---4-4---4-4--
A------------2------------
E-4-----0----------2------


Outro : Distorted
 
e-------------------------------------------
B----------777----------------444-----------
G---------------------4-4-4-4---------------   
D--6-6-6-6----2-2-2-2-4-4-4-4-----4-4-4-4---
A--6-6-6-6----2-2-2-2-2-2-2-2-----4-4-4-4---
E--4-4-4-4----0-0-0-0-------------2-2-2-2---

e---------------------------------------
B----------777--------------------------
G---------------------4-4-4-4-----------  
D--6-6-6-6----2-2-2-2-4-4-4-4-4-4-4-4---
A--6-6-6-6----2-2-2-2-2-2-2-2-4-4-4-4---
E--4-4-4-4----0-0-0-0---------2-2-2-2---


e------------------------------------
B------------------------------------
G------------------4-4-4-4-----------
D--6-6-6-6-2-2-2-2-4-4-4-4-4-4-4-4---
A--6-6-6-6-2-2-2-2-2-2-2-2-4-4-4-4---
E--4-4-4-4-0-0-0-0---------2-2-2-2---

End On :

e-------------
B-------------
G-------------
D-4-4/-0------
A-4-4/-0------
E-2-2/-0------
Comments