Eve 6 - Showerhead Chords & Tabs

 

Showerhead Chords & Tabs

Eve 6 Chords & Tabs

Version: 2 Type: Tab 0 ratings
1 star 2 stars 3 stars 4 stars 5 stars
comments

Showerhead Tab

#################################################
This file is the author's own work blah blah blah

Eve 6
Showerhead
#################################################
Really easy, really cool


Verse:
g|--9-9-x-x-x--12-12-x-x-x--7-7-x-x-x--6-x-7-6
d|--9-9-x-x-x--12-12-x-x-x--7-7-x-x-x--7-x-7-7
a|--7-7-x-x-x--10-10-x-x-x--5-5-x-x-x--7-x-7-7
e|-------------------------------------5-x-5-5
don't always play this /|\
|

Chorus:
g|--9--9----------------------7-7-7-7--|
d|--9--9--9-9-9-9-10-10-10-10-7-7-7-7-*| X 2
a|--7--7--9-9-9-9-10-10-10-10-5-5-5-5-*|
e|--------7-7-7-7--8--8--8--8----------|
[ Tab from: http://www.guitartabs.cc/tabs/e/eve_6/showerhead_tab_ver_2.html ]
Verse:
g|--9-9-x-x-x--12-12-x-x-x--7-7-x-x-x--6-x-7-6
d|--9-9-x-x-x--12-12-x-x-x--7-7-x-x-x--7-x-7-7
a|--7-7-x-x-x--10-10-x-x-x--5-5-x-x-x--7-x-7-7
e|-------------------------------------5-x-5-5

e|-------------------------------------5--------5-----
b|-------------------------------------5----------5---

g|--9-9-x-x-x--12-12-x-x-x--7-7-x-x-x--6------------6-
d|--9-9-x-x-x--12-12-x-x-x--7-7-x-x-x--7--------------
a|--7-7-x-x-x--10-10-x-x-x--5-5-x-x-x--7--------------
e|-------------------------------------5--------------

repeat verse and chorus throughout songBridge: (palm muted)

g|--5-5-5-5--7-7-7-7-------------------|
d|--5-5-5-5--7-7-7-7--7-7-7-7--7-7-7-7*| X 4
a|--3-3-3-3--5-5-5-5--7-7-7-7--7-7-7-7*|
e|--------------------5-5-5-5--5-5-5-5-|
Comments