Eve 6 - Promise Chords & Tabs

 

Promise Chords & Tabs

Eve 6 Chords & Tabs

Version: 3 Type: Tab 1 rating
1 star 2 stars 3 stars 4 stars 5 stars
comments

Promise Tab

Intro/Verses Gtr 1: (Clean)             
E|---------------------------------------|linebreakatthebeginning|
B|---------------------------------------|----------|
G|*-------------------------------------*|----4-2---|
D|*-7-7-7-7--7-7-7-7--9-9-9-9--7-7-7-7--*|--4-------|
A|--0-0-0-0--5-5-5-5--7-7-7-7--5-5-5-5---|----------|
E|---------------------------------------|----------|
  PM.....................................                               

  Guitar Part Behind the Intro/Verses:  
E|---------------------------------------|End-Verses|
B|---------------------------------------|----------|
G|*-------------------------------------*|--7--9--7-|
D|*-9-7-9-7--9-7-9-7--9-7-9-7--9-7-9-7--*|--7--9--7-|  Work out the timing
A|---------------------------------------|--5--7--5-|
E|---------------------------------------|----------|
  PM.....................................
[ Tab from: http://www.guitartabs.cc/tabs/e/eve_6/promise_tab_ver_3.html ]
  Chorus:
E|-----------------------------|--3rd-time--|-----------|
B|-----------------------------|------------|-----------|
G|*----------------------------|-----------*|-----------|
D|*----------7-7-xxxx----------|--4-4------*|-----------|
A|--7-7-xxxx-5-5-xxxx-2-2-xxxx-|--4-4-------|-2-2-xxxx--|
E|--5-5-xxxx----------0-0-xxxx-|--2-2-------|-0-0-xxxx--|
                                *let it ring*
 

BRIDGE:
(Clean)

E|------5-----5-----5-----5---|
B|----5-----5-----5-----5---5-|
G|----------------------------|
D|--4-----0-----2-----0-------|
A|----------------------------|
E|----------------------------|

E|------5-----5-----5-----5---|
B|----5-----5-----5-----5---5-|
G|----------------------------|
D|--4-----0-----2-------------|
A|--------------------0-------|
E|----------------------------|

E|------5-----5-----5-----5---|
B|----5-----5-----5-----5---5-|
G|----------------------------|
D|--4-----0-----2-----0-------|
A|----------------------------|
E|----------------------------|



this is the best on this site so hit me up if u want more tabs 
bluehensftbaLL16 			
Comments