Eve 6 - Promise Chords & Tabs

 

Promise Chords & Tabs

Eve 6 Chords & Tabs

Version: 2 Type: Tab 0 ratings
1 star 2 stars 3 stars 4 stars 5 stars
comments

Promise Tab

   
EVE 6
"PROMISE"
From the album "Horrorscope"

Very few people have tabbed this song correctly.  If you listen to it,
you will very obviously discover that the chords aren't exactly the same
as "Louie Louie"!!!

~ = Let ring
x = Muted string

*STANDARD TUNING*
(EADGBE)

INTRO:
(Clean)

E|--------------------------
B|--------------------------
G|--------------------------
D|--9-9-9-7-7-7-7-7---------
A|--7-7-7-5-5-5-5-5---------
E|--------------------------  x9
PM  . . . . . . . . 

E|-------------
B|-------------
G|-------------
D|--9-9-9-7----
A|--7-7-7-5----
E|-------------  x1
PM  . . . .
"Sleeping through the evening..."

FILL:
(Clean)

E|-----------
B|-----------
G|----4------
D|--4---7----
A|-----------
E|-----------  x1

VERSE:
(Clean)

E|---------------------------------
B|---------------------------------
G|---------------------------------
D|---------------------------------
A|-------5-5-5-5-5-7-7-7-5-5-5-5-5-
E|-5-5-5---------------------------  x3
PM . . . . . . . . . . . . . . . .
"I spit and stutter..."

E|------------------------
B|------------------------
G|------------------------
D|------------------------
A|-------5-5-5------------
E|-5-5-5------------------  x1
PM . . . . . .

This is a very light palm mute that you almost can't hear
under the bass  

(Distortion comes in here)

E|---------3-3--3-3---------------------
B|---------3-3--3-3---------------------
G|---9-----4-4--4-4---------------------
D|---9-----5-5--5-5---------------------
A|---7-----5-5--5-5---------------------
E|---------3-3--3-3--------------------- x1
"...white as a corpse..."

CHORUS:
(Distortion)

E|--------------------------------------
B|--------------------------------------
G|----------7-7-------------------------
D|--7-7-----7-7xxxx-2-2-----2-2---------
A|--7-7xxxx-5-5xxxx-2-2xxxx-2-2xxxx-----
E|--5-5xxxx---------0-0xxxx-0-0xxxx-----  x2
"Promise not to try..."

E|-----------------------------------
B|-----------------------------------
G|----------7-7----------------------
D|--7-7-----7-7xxxx-2-2-----4-4------
A|--7-7xxxx-5-5xxxx-2-2xxxx-2-2xxxx--
E|--5-5xxxx---------0-0xxxx-2-2xxxx--  x1

E|--------------------------
B|--------------------------
G|----------7-7-7-7-7-7-9---
D|--7-7-7-7-7-7-7-7-7-7-9---
A|--7-7-7-7-5-5-5-5-5-5-7---
E|--5-5-5-5-----------------  x1


FILL x1

VERSE x1

BRIDGE:
(Clean)
[ Tab from: http://www.guitartabs.cc/tabs/e/eve_6/promise_tab_ver_2.html ]
E|------5-----5-----5-----5---
B|----5-----5-----5-----5---5-
G|----------------------------
D|--4-----0-----2-----0-------
A|----------------------------
E|----------------------------

E|------5-----5-----5-----5---
B|----5-----5-----5-----5---5-
G|----------------------------
D|--4-----0-----2-------------
A|--------------------0-------
E|----------------------------

E|------5-----5-----5-----5---
B|----5-----5-----5-----5---5-
G|----------------------------
D|--4-----0-----2-----0-------
A|----------------------------
E|----------------------------
"Why you gotta keep the fan on high..."


E|------5-----5-----5-----5---
B|----5-----5-----5-----5---5-
G|----------------------------
D|--4-----0-----2-----0-------
A|----------------------------
E|----------------------------

E|------5-----5-----5-----5---
B|----5-----5-----5-----5---5-
G|--------------2-------------
D|--4-----0-----------2-------
A|----------------------------
E|----------------------------

E|------5-----5---------------
B|----5-----5---5-------------
G|----------------------------
D|--4-----0-------------------
A|----------------------------
E|----------------------------

(Distortion)
E|------------------------
B|------------------------
G|-9----------------------
D|-9xxxxxxxxxxxxxxxxxxxx--
A|-7xxxxxxxxxxxxxxxxxxxx--
E|------------------------
"Try.........."

(No. of scratches is probably not accurate)

OUTRO CHORUS:
(Distortion)

E|------------------------
B|------------------------
G|------7-7----------------
D|-7-7--7-7--2-2--2-2-------
A|-7-7--5-5--2-2--2-2-------
E|-5-5-------0-0--0-0-------  x2

(Play through the next four sections twice)

E|---------------------------------
B|---------------------------------
G|---------7-7-7-7---------7-7-7-7-
D|-7-7-7-7-7-7-7-7-2-2-2-2-7-7-7-7-
A|-7-7-7-7-5-5-5-5-2-2-2-2-5-5-5-5-
E|-5-5-5-5---------0-0-0-0--------- x1

E|----------------------------------
B|----------------------------------
G|---------7-7-7-7------------------
D|-7-7-7-7-7-7-7-7-2-2-2-2-2-2-2-2--
A|-7-7-7-7-5-5-5-5-2-2-2-2-2-2-2-2--
E|-5-5-5-5---------0-0-0-0-0-0-0-0-- x1

E|----------------------------------
B|----------------------------------
G|---------7-7-7-7------------------
D|-7-7-7-7-7-7-7-7-2-2-2-2-4-4-4-4--
A|-7-7-7-7-5-5-5-5-2-2-2-2-4-4-4-4--
E|-5-5-5-5---------0-0-0-0-2-2-2-2-- x1

E|----------------------------
B|----------------------------
G|---------7-7-7-7------------
D|-7-7-7-7-7-7-7-7-2-2--2-2---
A|-7-7-7-7-5-5-5-5-2-2--2-2---
E|-5-5-5-5---------0-0--0-0--- x1

Last time:

E|------------------------
B|------------------------
G|------------------------
D|-2---------2~-----------
A|-2---2-2-2-2~-----------
E|-0---0-0-0-0~-----------
PM     . . . 

Comments