Eve 6 - Promise Chords & Tabs

 

Promise Chords & Tabs

Eve 6 Chords & Tabs

Version: 3 Type: Bass Tab 0 ratings
1 star 2 stars 3 stars 4 stars 5 stars
comments

Promise Bass Tab

   
---------------------------------------------------------------------------------------
			     Promise - Eve 6
---------------------------------------------------------------------------------------

Tabbed By : rahsan

Tuning: Standard

1st verse
G|---------------|------------------|----------------|-----------------------------|
D|---------------|------------------|----------------|-----------------------------|
A|-----5------5--|-----5---------5--|-------5--7--5--|---4-4-4-4-5-5---------------|
E|-5------0------|-5---------0------|-5--5-----------|-0-------------0--0-0-3-3-3--|
                       
		    

chorus
G|----------|----------|----------|----------|---------|-------------|
D|----------|----------|----------|----------|---------|-------------|
A|------5-5-|----------|------5-5-|----------|-----5-5-|-------------|
E|-5-5------|-0-0--0-0-|-5-5------|-0-0--0-0-|-5-5-----|-0-0-2-2-2-2-|
    ^
the first two notes sound like they might be played an octave lower.

G|---------------|---------|
D|---------------|---------|
A|---------5-5-5-|---------|
E|-5-5-5-5-------|--0------|


2nd verse
G|---------------|----------------|----------------|-----------------------------|
D|---------------|----------------|----7-----------|-----------------------------|
A|-----5------5--|-----5-------5--|-------5--7--5--|---4-4-4-4-5-5---------------|
E|-5------0------|-5-------0------|-5--------------|-0-------------0--0-0-3-3-3--|
                       

repeat chorus

[ Tab from: http://www.guitartabs.cc/tabs/e/eve_6/promise_btab_ver_3.html ]
bridge
G|--------------|-------------|------------|------------|-------------|
D|--------------|-------------|------------|------------|-------------|
A|-----5---7----|----5--7-----|----5--7--5-|----5--7--5-|----5--------|
E|--2-----------|-2-----0---5-|-2-----0----|-2-----0----|-2----2/5--0-|

G|-------------------------------------|
D|-------------------------------------|
A|----5-----------------7-7-7-7-7-7-7-7|
E|-2----5-5-5-5-5-5-5-5----------------|

chorus
G|---------|---------|---------|-------------|-------7-|---------|
D|---------|---------|---------|-------------|---------|---------|
A|-----5-5-|---------|-----5-5-|-------------|-----5---|-----5-5-|
E|-5-5-----|-0-0-0-0-|-5-5-----|-0-0-0-0-12\-|-5-5-----|-0-0-----|

G|---------|---------|-------7-|---------|---------|-------------|
D|---------|---------|---------|---------|---------|-------------|
A|-----5-5-|---------|-----5---|---------|-----5-5-|-------------|
E|-5-5-----|-0-0-0-0-|-5-5-----|-0-0-2-2-|-5-5-----|-0-0-0-0-----|

G|---------|---------|---------|---------|---------|-------------|
D|---------|---------|---------|---------|---------|-------------|
A|-----5-5-|-----5-5-|-----5-5-|---------|-----5-5-|-------------|
E|-5-5-----|-0-0-----|-5-5-----|-0-0-0-0-|-5-5-----|0-0-2-2------|

G|---------|-----------------|-------------|
D|---------|-----------------|-------------|
A|-----5-5-|-----------------|-------------|
E|-5-5-----|-0-x-0-0--0-x-0--|-0-0-0-0-----|


| /  slide up
| \  slide down
| h  hammer-on
| p  pull-off
| ~  vibrato
| +  harmonic
| x  Mute note
===============================================================================
Comments