Eve 6 - Open Road Song Chords & Tabs

 

Open Road Song Chords & Tabs

Eve 6 Chords & Tabs

Version: 3 Type: Bass Tab

Open Road Song Bass Tab

   
-----------------------------------------------------------------------------
				OPEN ROAD SONG - Eve 6
-----------------------------------------------------------------------------

Title: Open Road Song
Artist: Eve 6
Album: Eve 6

Instrument: 4 String Bass

Tabbed by: M'R7'N (sitnam2@hotmail.com)

Tuning: Standard ( E A D G)

(12) Harmonic
* Let ring
/ Slide UP
\ Slide down

Guitar Intro

Intro (11 sec)

G|----------------||
D|----------------||
A|(12)------------||
E|----------------||



"Soft" Verse (22 sec)
G|-----------------|---------------------||
D|-----------------|---------------------||
A|-----------------|---------------------||
E|/5*--7*--9*--10*-|5*--7*--10*--10-9-9-7||
                            
                             "Soft-Chorus"
G|-----------------|------------------------||
D|-----------------|------------------------||
A|-----------------|---------7*---5*------5*||
E|5*--7*--9*--10*--|5*--7*------------0*----||



Verse (54 sec)
G|----------------|----------------|----------------|--------------.--||
D|----------------|----------------|----------------|----------------||
A|--------77777777|9999999955555555|----------------|5555555555555554||
E|55555555--------|----------------|5555555577777777|----------------||


G|----------------|----------------|----------------||
D|----------------|----------------|----------------||
A|--------77777777|9999999955555555|----------------||
E|55555555--------|----------------|5555555577777777||



Chorus (1 min 14 sec)
G|----------------|----------------||
D|----------------|----------------||
A|7------5-7--7-74|5--55--55--55---||
E|----5h7---------|-------------5--||

G|----------------|----------------||
D|----------------|----------------||
A|-------5-7--7-74|5--55--55--55---||
E|0---5h7---------|-------------5--||x2

G|----------------|----------------||
D|----------------|----------------||
A|-----------7/9-7|----------------||
E|0--00--00-0-----|10*-----\\\\\\\\||

[ Tab from: http://www.guitartabs.cc/tabs/e/eve_6/open_road_song_btab_ver_3.html ]
Guitar Lead (1 min 37sec)
G|----------------|----------------|----------------|----------------||
D|----------------|----------------|----------------|----------------||
A|----------------|----------------|----------------|----------------||
E|5555555577777777|3333333333333333|5555555577777777|3333333322222222||

G|----------------|----------------|----------------|----------------||
D|----------------|----------------|----------------|----------------||
A|--------7-77-7-7|9-11-12\55555555|----------------|----------------||
E|55555555--------|----------------|5555555577777777|3-33-x3-x3--3333||


Bridge (2 min)
G|----------------|----------------|----------------|----------------||
D|----------------|----------------|----------------|----------------||
A|--------7-7-777-|9-9-99\-5-5-554-|----------------|5-5-555-5-5-55h7||
E|5-5-555---------|----------------|5-5-555-7-7-777-|----------------||


G|----------------|----------------|----------------|----------------||
D|----------------|----------------|----------------|----------------||
A|--------7-7-777-|9-9-99\-5-5-554-|----------------|----------------||
E|5-5-555---------|----------------|5-5-555-7-7-777-|3-3-33-0-0-2-2\\||

G|----------------|----------------|----------------|----------------||
D|----------------|----------------|----------------|----------------||
A|----------------|--------55555555|----------------|5---55-5-5555554||
E|5555555500000000|22222222--------|5555555577777777|----------------||

G|----------------|----------------|----------------|----------------||
D|----------------|----------------|----------------|----------------||
A|----------------|--------55555555|----------------|5-5-5-5-5-/////-||
E|5555555500000000|22222222--------|5555555577777777|----------------||

G|----------------||
D|----------------||
A|17-17-17-17-17\\||
E|----------------||



Last Chorus (2 min 48 sec)
G|----------------|----------------||
D|----------------|----------------||
A|7------5-7--7-74|5--55--55--55---||
E|----5h7---------|-------------5--||

G|----------------|----------------||
D|----------------|----------------||
A|-------5-7--7-74|5--55--55--55---||
E|0---5h7---------|-------------5--||x2

G|----------------|----------------||
D|----------------|----------------||
A|----------------|----------------||
E|0--00--00--0-00-|10*-----5*---\\\||