Eve 6 - On The Roof Again Chords & Tabs

 

On The Roof Again Chords & Tabs

Eve 6 Chords & Tabs

Version: 3 Type: Tab 0 ratings
1 star 2 stars 3 stars 4 stars 5 stars
comments

On The Roof Again Tab

   
Title: "On The Roof Again"
Artist: EVE 6
Album: Horrorscope
Tabbed by: Alex Stroshane (Edge2693@hotmail.com)

Oops...I forgot they won't let you have more than one
tab per file, so they cut out the correct EVE 6 way
from my first post. Here is just the correct way:

Tune down a full step (D a F C G D).

Use some distortion, typical EVE 6 sound, mid pickup
if playing a Strat-style guitar.

I will use the verse lyrics as cues for variations during
the verse, since I'm too lazy to count the bars and all.
You will pick it up quickly if you have the CD handy, it's
really pretty easy.

x = strum muted string
\ = slide up
P = palm mute
(7)=7th fret harmonic

Intro/Verse
-----------
      *-----This is the basic riff.-----*
G-3\-|-8-8-----------9------|-9-9-----------9------|
D-4\-|-9-9-----------9------|-9-9-----------9------|
A-4\-|-9-9-(7)(7)(7)-7------|-7-7-(7)(7)(7)-7------|
E-2\-|-7-7------------(7)(7)|-7-7------------(7)(7)|

Play the above until you get to the line:
"He was the prodigal son..."
There you play this variation:

G-8-8-----------9------|-9-9-----------9---9-|
D-9-9-----------9------|-9-9-----------9---9-|
A-9-9-(7)(7)(7)-7------|-7-7-----------7---7-|
E-7-7------------(7)(7)|---------------------|
            He was the....had brought him home.

Now back to the standard riff, until "cute Guatemalan":

G-8-8-----------9------|-9-9-----------9-x-9-|
D-9-9-----------9------|-9-9-----------9-x-9-|
A-9-9-(7)(7)(7)-7------|-7-7-(7)(7)(7)-7-x-9-|
E-7-7------------(7)(7)|-7-7-------------x---|
     ...with this cute Guatemalan.

Back to main riff until "cool and collected":

                        P P   P P P   P
G-8-8-----------9-9-9-|-----9-------9-9-|
D-9-9-----------9-9-9-|-----9-------9-9-|
a-9-9-(7)(7)(7)-7-7-7-|-7-7-7-7-7-7-7-7-|
E-7-7-----------------|-0-0---0-0-0---0-|

  P P   P
G-----9---7-7-|
D-----9---7-7-|
a-7-7-7-7-5-5-|
E-0-0---0-----|

Chorus
------

G-8--8-x-x-3--3-x-x-5--5-x-x-2--2-x-x-|
D-9--9-x-x-4--4-x-x-6--6-x-x-2--2-x-x-|
A-9--9-x-x-4--4-x-x-6--6-x-x-1--1-x-x-|
E-7--7-x-x-2--2-x-x-4--4-x-x-0--0-x-x-|  X3

G-8-------3-------1----|
D-9-------4-------2----|
A-9-------4-------2----|
E-7-------2-------0----|

Verse 2
-------
      **------Repeat this part twice------**
B----|-------15--15--15-|-------15--15--15--|
G-3\-|-8-8---14--14--14-|-9-9---14--14--14--|
D-4\-|-9-9---12--12--12-|-9-9---12--12--12--|
A-4\-|-9-9--------------|-7-7---------------|
E-2\-|-7-7--------------|-7-7---------------|

Now back to the standard riff, until "Riding high...":

G-8-8-----------9------|-9-9-----------9-x-9-|
D-9-9-----------9------|-9-9-----------9-x-9-|
A-9-9-(7)(7)(7)-7------|-7-7-(7)(7)(7)-7-x-9-|
E-7-7------------(7)(7)|-7-7-------------x---|
                    ...had only gotten him down.

Back to main riff until "together til...":

                        P P   P P P   P
G-8-8-----------9-9-9-|-----9-------9-9-|
D-9-9-----------9-9-9-|-----9-------9-9-|
a-9-9-(7)(7)(7)-7-7-7-|-7-7-7-7-7-7-7-7-|
E-7-7-----------------|-0-0---0-0-0---0-|

  P P   P
G-----9---7-7-|
D-----9---7-7-|
a-7-7-7-7-5-5-|
E-0-0---0-----|


Chorus
------

Same as before.

Bridge
------
Just play this one bit over and over, listen to the CD
for the timing.

B--12---12---|
G--11---11---|
D---9----9---|
A------------|
E------------|

Then this:

G-9-9---9-9---9-9---9-9-|
D-9-9---9-9---9-9---9-9-|
A-7-7---7-7---7-7---7-7-|
E-----------------------|

Chorus/Outro
------------

G-8--8-x-x-3--3-x-x-5--5-x-x-2--2-x-x-|
D-9--9-x-x-4--4-x-x-6--6-x-x-2--2-x-x-|
A-9--9-x-x-4--4-x-x-6--6-x-x-1--1-x-x-|
E-7--7-x-x-2--2-x-x-4--4-x-x-0--0-x-x-|  X4

G-8--8-x-x-3--3-x-x-8--8-x-x-1--1-x-x-|
D-9--9-x-x-4--4-x-x-9--9-x-x-2--2-x-x-|
A-9--9-x-x-4--4-x-x-9--9-x-x-2--2-x-x-|
E-7--7-x-x-2--2-x-x-7--7-x-x-0--0-x-x-|  X3

G-8-------3-------1----|
D-9-------4-------2----|
A-9-------4-------2----|
E-7-------2-------0----|  X2

Hope you enjoy the tab! Comments/questions: Edge2693@hotmail.com=============================

#----------------------------------PLEASE NOTE--------------------------------#
#This file is the author's own work and represents their interpretation of the#
#song. You may only use this file for private study, scholarship, or research.#
#-----------------------------------------------------------------------------#
#-- File created with Instab - http://www.pconline.com/~smcarey/instab.html --#
#-----------------------------------------------------------------------------#

Author/Artist: Eve 6
Title: On The Roof Again
Album: Horrorscope
Transcribed by: Matt Foster
Email: nexthendrix806@hotmail.com

Email me comments/corrections and if you know where
I can get tabs of other songs off Horrorscope.
[ Tab from: http://www.guitartabs.cc/tabs/e/eve_6/on_the_roof_again_tab_ver_3.html ]
------------------------------------------------------------------------------
------------------------------------------------------------------------------
------------------------------------------------------------------------------
----------12-12-12------------------------------------------------------------
-3///-7-7---------------------------------------------------------------------
-3///-5-5---------------------------------------------------------------------
intro 1x

-----------|--------|---------------------------------------------------------
-----------|--------|---------------------------------------------------------
-----------|--------|---------------------------------------------------------
-----------|12-12-12|---------------------------------------------------------
-12-x-7-7--|--------|---------------------------------------------------------
-10-x-5-5--|--------|---------------------------------------------------------
verse 17x [________]<-- on 11th time dont play this                        

------------------------------------------------------------------------------
------------------------------------------------------------------------------
--------------------7-------7-------7-5-5-------------------------------------
--------------------7-------7-------7-5-5-------------------------------------
--12/////-------7-7-5-7-7-7-5-7-7-7-5-3-3-------------------------------------
--10/////-------5-5---5-5-5---5-5-5-------------------------------------------
pre chorus 1x [pm.] [.pm..] [.pm..]

------------------|-----------------------------------------------------------
------------------|-----------------------------------------------------------
--5-5-------------|-5---------------------------------------------------------
--5-5-5-5-7-7-3-3-|-5-5-3-----------------------------------------------------
--3-3-5-5-7-7-3-3-|-3-5-3-----------------------------------------------------
------3-3-5-5-1-1-|---3-1-----------------------------------------------------
chorus 3x          then this 1x to end chorus

------------------------------------------------------------------------------
------------------------------------------------------------------------------
------7-7-7-----7-7-7---------------------------------------------------------
------------------------------------------------------------------------------
--7-7-------5-5---------------------------------------------------------------
--5-5-------3-3---------------------------------------------------------------
play this 1x to end chorus and enter verse

------------------------------------------------------------------------------
------------------------------------------------------------------------------
------------------------------------------------------------------------------
-----12-12-12-----------------------------------------------------------------
-7-7----------12-x------------------------------------------------------------
-5-5----------10-x------------------------------------------------------------
verse 7x

------------------------------------------------------------------------------
------------------------------------------------------------------------------
--------------------7-------7-------7-5-5-------------------------------------
--------------------7-------7-------7-5-5-------------------------------------
--12/////-------7-7-5-7-7-7-5-7-7-7-5-3-3-------------------------------------
--10/////-------5-5---5-5-5---5-5-5-------------------------------------------
pre chorus 1x [pm.] [.pm..] [.pm..]

------------------------------------------------------------------------------
------------------------------------------------------------------------------
-14-14------------------------------------------------------------------------
-12-12------------------------------------------------------------------------
------------------------------------------------------------------------------
------------------------------------------------------------------------------
interlude 7x : "your heinous highness broke her hymen....."

------------------------------------------------------------------------------
------------------------------------------------------------------------------
-7-5--------------------------------------------------------------------------
-7-5--------------------------------------------------------------------------
-5-3--------------------------------------------------------------------------
------------------------------------------------------------------------------
pre chorus 4x : "try to...try to...try to..try to.."

------------------------------------------------------------------------------
------------------------------------------------------------------------------
-5-5--------------------------------------------------------------------------
-5-5-5-5-7-7-3-3--------------------------------------------------------------
-3-3-5-5-7-7-3-3--------------------------------------------------------------
-----3-3-5-5-1-1--------------------------------------------------------------
chorus 3x

------------------------------------------------------------------------------
------------------------------------------------------------------------------
-5--------5-----9--5-----9--5-----9--5------5---------------------------------
-5-5-7-3--5-5-7-9--5-5-7-9--5-5-7-9--5-5-3--5-5-3-----------------------------
-3-5-7-3--3-5-7-7--3-5-7-7--3-5-7-7--3-5-3--3-5-3-----------------------------
---3-5-1----3-5------3-5------3-5------3-1----3-1-----------------------------
ending riff 1x                                let last note ring
Comments