Eve 6 - On The Roof Again Chords & Tabs

 

On The Roof Again Chords & Tabs

Eve 6 Chords & Tabs

Version: 2 Type: Tab 0 ratings
1 star 2 stars 3 stars 4 stars 5 stars
comments

On The Roof Again Tab

   
Song: On The Roof Again
Band: EVE 6
From: Horrorscope
By:   Adam Urbanczyk
Mail: pickboy87@cs.com
Tune: Dropped D (D,A,D,G,B,E)
 
  Intro Riff:
E|-----------------|
B|-----------------|
G|-----------------|
D|-----------------|
A|--3-(3)--/(7)----|
D|--3-(3)--/(7)----|

  Main Riff: 
E|-----------------|--------------|
B|-----------------|--------------|
G|*----------------|-------------*|
D|*----------------|-------------*|
A|--7--7-----------|--7-----------|
D|--7--7----5-5-5--|--7----7-7----|
          NH......       NH....

  Pre-Chorus:
E|-----------------|
B|-----------------|
G|-----------------|
D|--7-----7-----7--|
A|--7-----7-----7--|
D|--7-----7-----7--|

  Chorus: 
E|------------------------------| 
B|------------------------------| 
G|*----------------------------*| 
D|*----------------------------*| 
A|--7--7--\\2--2--/4--4--\\0--0---| 
D|--7--7--\\2--2--/4--4--\\0--0---| 
  \"Shit went bad...\"               
[ Tab from: http://www.guitartabs.cc/tabs/e/eve_6/on_the_roof_again_tab_ver_2.html ]
|---------------------------------------------------|
|---------------------------------------------------|
|---------------------------------------------------|
|---------------------------------------------------|
|--0---2---7-----0---2---4-----0---2---4-4---0-(0)--|
|--0---2---7-----0---2---4-----0---2---4-4---0-(0)--|
 \"Gon na jump   Gon na  jump  Gon na die this year\"
 
  Fill: (After the first chorus)
E|----------------9---9---9---|
B|----------------9---9---9---|
G|*---------------0---0---0--*|
D|*--------------------------*|
A|---0---0---0----------------|
D|----------------------------|           
   PM..........  

  Interlude:
E|--------9----9--------------|
B|--------9----9--------------|
G|*-------0----0-------------*|
D|*--------------------------*|
A|----------------------------|
D|----------------------------|

  For the other part of the interlude, slide your finger on the B string 
  (as you would do for harmonics) and pick muted sixteenth notes.

  Outro:
E|-------------------|
B|-------------------|
G|-------------------|
D|-------------------|
A|---7-----2-----0---|
D|---7-----2-----0---|


  

Comments