Eve 6 - Heres To The Night Chords & Tabs

 

Heres To The Night Chords & Tabs

Eve 6 Chords & Tabs

Version: 2 Type: Tab 0 ratings
1 star 2 stars 3 stars 4 stars 5 stars
comments

Heres To The Night Tab

   
Song-Here's To The Night
Artist-Eve 6
Album-Horrorscope

this song easy and cool it's really played by a keyboard, but i can give u it 
on a guitar Reg. tuning E a D G B E
E-mail stuff to Rad828@hotmail.com

~=let string ring out
x=muted

                    Play as a harmonic!


G-------5-----5---------5---------------------------------------
D---------5-----5-----5-----------------------------------------
A-----------5-----5---------------------------------------------
E---------------------------------------------------------------


Intro and Verse:
Strum as power chords the first time through G then a weird one C then a weird one

E---------------------------------------------------------------
B---------------------------------------------------------------
G---------------------------------------------------------------
D------5-5-5-5-5-5--5-5-5--5-5-5---------------------------------    
A-------5-5---5-5--3-5-5--5-5-5--------------Repeat a lot--------
E-----3-----0----------------------------------------------------
       xxxx  xxxxx  xxxxx  xxxxx

Chorus:
[ Tab from: http://www.guitartabs.cc/tabs/e/eve_6/heres_to_the_night_tab_ver_2.html ]
E---------------------------------------------------------------------
B---------------------------------------------------------------------
G-------------------------------------5-5-5-5-5-5-5-5--7-7-7-7-7-7-7-7
D---5-5-5-5-5-5-5-5--2-2-2-2-2-2-2-2--5-5-5-5-5-5-5-5--7-7-7-7-7-7-7-7
A---5-5-5-5-5-5-5-5--2-2-2-2-2-2-2-2--3-3-3-3-3-3-3-3--5-5-5-5-5-5-5-5
E---3-3-3-3-3-3-3-3--0-0-0-0-0-0-0-0----------------------------------

Bridge:

E---------------------------------------------------------------------
B---------------------------------------------------------------------
G---8-8-8-8-8-8-8-8--5-5-5-5-5-5-5-5--8-8-8-8-8-8-8-8--5-5-5-5-5-5-5-5
D---8-8-8-8-8-8-8-8--5-5-5-5-5-5-5-5--8-8-8-8-8-8-8-8--5-5-5-5-5-5-5-5
A---6-6-6-6-6-6-6-6--3-3-3-3-3-3-3-3--6-6-6-6-6-6-6-6--3-3-3-3-3-3-3-3
E---------------------------------------------------------------------
      
Bridge Part 2

E---------------------------------------------------------------
B---------------------------------------------------------------
G-------------------------5---5--5---7---7--7-------------------
D---5---5--5~--2---2--2---5---5--5---7---7--7-------------------
A---5---5--5~--2---2--2---3---3--3---5---5--5-------------------
E---3---3--3~--0---0--0-----------------------------------------

Thats it enjoy
Comments