Eve 6 - Heres To The Night Chords & Tabs

 

Heres To The Night Chords & Tabs

Eve 6 Chords & Tabs

Version: 3 Type: Bass Tab 0 ratings
1 star 2 stars 3 stars 4 stars 5 stars
comments

Heres To The Night Bass Tab

-------------------------------------------------------------------------------
			   Heres to the Night- Eve 6
-------------------------------------------------------------------------------

Tabbed By : David Budge
e-mail: david@budge.us

Tuning: Drop D (DADG)

PreIntro: Optional (I'm pretty sure that the bass doesn't accually play this part but hey, why not?)

G|----12--0--7--------12--0--7------|
D|----------------------------------|
A|----------------------------------|
D|----------------------------------|

Intro:

G|-------------------------------------------------------------------------|
D|-------------------------------------------------------------------------|
A|------------------------33333333--55555555-------------------------------|
D|---55555555--22222222----------------------------------------------------|

Verse1: 

G|-------------------------------------------------------------------------|
D|-------------------------------------------------------------------------|
A|------------------------33333333--55555555-------------------------------|
D|---55555555--22222222----------------------------------------------------|
                                                       Play Three Times
  (On the second time through, the 5th Fret A is played 16 times, not 8. Just listen to the song) 

Pre Chorus:

G|-------------------------------------------------------------------------|
D|-------------------------------------------------------------------------|
A|------------------------------5555--3-33---3-33--------------------------|
D|---22222222--55555555--2222----------------------------------------------|

Chorus:

G|-------------------------------------------------------------------------|
D|-------------------------------------------------------------------------|
A|-----------------3333----------------3333----------------------3-33-3-33-|
D|-5555-0000-2222------5555-0000-2222-----5555-0000-2222-0000--------------|

Verse 2:
[ Tab from: http://www.guitartabs.cc/tabs/e/eve_6/heres_to_the_night_btab_ver_3.html ]
G|-------------------------------------------------------------------------|
D|-------------------------------------------------------------------------|
A|------------------------33333333--55555555-------------------------------|
D|---55555555--22222222----------------------------------------------------|
                                                       PLAY ONLY TWICE THIS TIME
(On the second time through, the 5th Fret A is played 16 times, not 8. Just listen to the song)

Pre Chorus:

G|-------------------------------------------------------------------------|
D|-------------------------------------------------------------------------|
A|------------------------------5555--3-33---3-33--------------------------|
D|---22222222--55555555--2222----------------------------------------------|

Chorus:

G|---------------------------------------------------------------------------|
D|---------------------------------------------------------------------------|
A|-------------------3333----------------3333----------------------3-33-3-33-|
D|---5555-0000-2222------5555-0000-2222-----5555-0000-2222-0000--------------|

Bridge1

G|-----------------------------------------------------------------------|
D|-----------------------------------------------------------------------|
A|-----------------------------------------------------------------------|
D|---00000000--33333333-00000000-33333333-00000000-33333333--------------|

Bridge 2

G|--------------------------------------------------------------------------|
D|--------------------------------------------------------------------------|
A|-----------------3---3--------------------3--3---5--5---------------------|
D|---5--5---2--2---------------5--5---2--2----------------------------------|

Pre Chorus:

G|-------------------------------------------------------------------------|
D|-------------------------------------------------------------------------|
A|------------------------------5555--3-33---3-33--------------------------|
D|---22222222--55555555--2222----------------------------------------------|

Chorus:

G|---------------------------------------------------------------------------|
D|---------------------------------------------------------------------------|
A|-------------------3333----------------3333----------------------3-33-3-33-|
D|---5555-0000-2222------5555-0000-2222-----5555-0000-2222-0000--------------|

                                                              CHORUS x2
                    (Connect the two Chorus' by playing the 5,0,2,3 inbetween them)


Please Email me if you see any mistakes. I wanna see how I did!
Comments