Eve 6 - Heres To The Night Chords & Tabs

 

Heres To The Night Chords & Tabs

Eve 6 Chords & Tabs

Version: 1 Type: Bass Tab 0 ratings
1 star 2 stars 3 stars 4 stars 5 stars
comments

Heres To The Night Bass Tab

song: Here's To The Night
artist: Eve 6
album: Horrorscope
transcribed by: Jon "Mr.Big" Makokis
comments or corrections: metallikop25@hotmail.com
 
[ Tab from: http://www.guitartabs.cc/tabs/e/eve_6/heres_to_the_night_btab.html ]
verse:x4                                    3rd time
G|---------------------------------------|-------------|
D|---------------------------------------|-------------|
A|--------------------33333333-----------|-------------|
D|--55555555-22222222----------00000000--|--00000000/--|
 
pre-chorus:x1
G|-----------------------------------|
D|-----------------------------------|
A|------------------------------3~~--|
D|--22222222/55555555-2222-0000------|
 
chorus:x3                       3rd time
G|------------------|--------|------------|
D|------------------|--------|------------|
A|------------------|--3333--|-------3~~--|
D|--5555\0000-2222--|--------|--0000------|
 
verse:x2                                    2nd time
G|---------------------------------------|------------|
D|---------------------------------------|------------|
A|--------------------33333333-----------|------------|
D|--55555555-22222222----------00000000--|--00000000--|
 
pre-chorus:x1
 
chorus:x3
G|------------------|--------|------------|
D|------------------|--------|------------|
A|------------------|--3333--|--5555-3~~--|
D|--5555\0000-2222--|--------|------------|
 
bridge:x3
G|----------------------|
D|----------------------|
A|----------------------|
D|--11111111/33333333\--|
 
verse riff:x2
G|---------------------------------------|
D|---------------------------------------|
A|--------------------33333333-----------|
D|--55555555-22222222----------00000000--|
 
pre-chorus:x1
G|--------------------------------| 
D|--------------------------------|
A|-------------------------3~~~~--|
D|--22222222/5~~-2222-0000--------|
 
chorus:x7                       7th time
G|------------------|--------|------------|
D|------------------|--------|------------|
A|------------------|--3333--|-------3~~--|
D|--5555\0000-2222--|--------|--0000------|
 
 
There yah go.  It's pretty easy.
 
HAVE FUN!
Comments