Eve 6 - Girl Eyes Chords & Tabs

 

Girl Eyes Chords & Tabs

Eve 6 Chords & Tabs

Version: 1 Type: Tab 0 ratings
1 star 2 stars 3 stars 4 stars 5 stars
comments

Girl Eyes Tab

EVE 6, Girl Eyes Solo
Tabbed by Pete Cook

/=slide

-------------------------------------------------9--------------------------------
---8/5/8---8/5/8-7---8/5/8-7-3-7-5-7-5-----8/5/8-----8/5/8---7-------7---------7--
-----------------7-7---------7----------------------------------------------------
----------------------------------------------------------------------------------
----------------------------------------------------------------------------------
[ Tab from: http://www.guitartabs.cc/tabs/e/eve_6/girl_eyes_tab.html ]
--------------------------------------------------------------7---8/5/8---8/5/8-7-
-3-7-5-7-5---------------------------------7-------7-------------------7----------
----------------------------------------------------------------------------------
----------------------------------------------------------------------------------
----------------------------------------------------------------------------------

If you want to, you can also replace 8/5/8 with 8/7/8 sounds fine really.
Comments