Eve 6 - Bang Chords & Tabs

 

Bang Chords & Tabs

Eve 6 Chords & Tabs

Version: 2 Type: Tab 0 ratings
1 star 2 stars 3 stars 4 stars 5 stars
comments

Bang Tab

   
Band : Eve 6
Song : Bang
Album : Horrorscope (2000)
Tabbed By : silverwind13 (soquester@hotmail.com)

Intro:
(Play 4 times)
e---------------------------|
B---11----------------------|
G-------------10-10-10-10---|
D-8-----8-8-----------------|
A---------------------------|
E---------------------------|

Bridge:
(Play 3 Times)
e---------------------------|
B---------------------------|
G----10-10-10--10-10-10-----|
D--8------------------------|
A---------------------------|
E---------------------------|

Bridge 2:
(Play Once)
e---------------------------|
B---------------------------|
G----10---10---10-----------|
D--8----8----8-----4--------|
A------------------4--------|
E------------------2--------|
[ Tab from: http://www.guitartabs.cc/tabs/e/eve_6/bang_tab_ver_2.html ]
Pre-chorus:
(Play 3 Times)
e---------------------------|
B---------------------------|
G---------------------------|
D-44444444-66-66------------|
A-44444444-66-66------------|
E-22222222-44-44------------|

Pre-chorus 2:
(Play once)
e---------------------------|
B---------------------------|
G-333-33--------------------|
D-333-33--------------------|
A-111-11--------------------|
E---------------------------|

Chorus:
(Play 2 Times)
e--------------------------------------------|
B--------------------------------------------|
G-----333-33-----333-33-----333-33-----333-33|
D-4-4-333-33-4-4-333-33-4-4-333-33-3-3-333-33|
A-4-4-111-11-4-4-111-11-4-4-111-11-3-3-111-11|
E-2-2--------2-2--------2-2--------1-1-------|

Ending:
(Play until song ends)
e------------------|
B------------------|
G---------3--------|
D-5---5-3-3--------|
A-5---5-3-1--------|
E-3-X-3-1----------|
Comments