Eve 6 - Bang Chords & Tabs

 

Bang Chords & Tabs

Eve 6 Chords & Tabs

Version: 1 Type: Tab 0 ratings
1 star 2 stars 3 stars 4 stars 5 stars
comments

Bang Tab

Song: Bang
Band: EVE 6
From: Horrorscope
By:   Adam Urbanczyk
Mail: pickboy87@cs.com
Tune: Dropped D

  Main Riff/Verses:
E|-------------7-----------2---------2--|
B|---0------------------0---------0-----|
G|*------------------------------------*|
D|*------------------------------------*|
A|--------------------------------------|
D|--------------------------------------|

  End Verses:
E|---2-------2-------2-----|
B|-----0-------0-------0---|
G|*------4-------4--------*|
D|*-----------------------*|
A|-------------------------|
D|-------------------------|
[ Tab from: http://www.guitartabs.cc/tabs/e/eve_6/bang_tab.html ]
  Pre-Chorus:
E|----------------------------------|-Ending-------------------|
B|----------------------------------|--------------------------|
G|*--------------------------------*|--------------------------|
D|*--5-5-5-5-5-5-5----7---7---7-7--*|---9-9----9----9----9-9---|
A|---5-5-5-5-5-5-5----7---7---7-7---|---9-9----9----9----9-9---|
D|---5-5-5-5-5-5-5----7---7---7-7---|---9-9----9----9----9-9---|

  Chorus:
E|----------------------------------|
B|----------------------------------|
G|*--------------------------------*|
D|*--5-------5-------7---7----7-7--*|
A|---5-------5-------7---7----7-7---|
D|---5-------5-------7---7----7-7---|

  Bridge:   NH
E|----------7------------------|
B|-----------------------------|
G|*---------------------------*|
D|*--5----------5---3-----10--*|
A|---5----------5---3-----10---|
D|---5----------5---3-----10---|
Comments