Eve 6 - At Least Were Dreaming Chords & Tabs

 

At Least Were Dreaming Chords & Tabs

Eve 6 Chords & Tabs

Version: 1 Type: Tab 0 ratings
1 star 2 stars 3 stars 4 stars 5 stars
comments

At Least Were Dreaming Tab

   
Band : Eve 6
Song : At Least We're Dreaming
Tabbed by : eve6_punk
E-Mail : eve6pu_nk@yahoo.com

This is one of the first tabs I've done and I put a lot of time listening to the
cd to figure this killer song out.  Everything sounds right so if there are any
problems, send to eve6pu_nk@yahoo.com  The new Eve 6 cd is one of the best ones
they've put out. If you don't have it, get it.

Tuning : Standard - E A D G B E
=================
  \ - slide down
sus - sustain note 
  b - bend


Guitar(intro):

E -2-0-0-4-0-0-7-0-|
B -----------------|
G -----------------| x7
D -----------------|
A -----------------|
E -----------------|

e -2-0-0-4-0-0-7-0-7sus\0-|
B ------------------------|
G ------------------------|
D ------------------------|
A ------------------------|
E ------------------------|


Guitar(verse): palm muted

e ------------------------------------------|
B -----5-4-5-----55-4-5-----5-4-5-----5-4-5-|
G ------------------------------------------| x2
D ------------------------------------------|
A ------------------------------------------|
E ------------------------------------------|

e -----------------------------------------|
B -----5-4-5-----5-4-2-----5-4-5-----5-4-2-|
G -----------------------------------------|
D -----------------------------------------|
A -----------------------------------------|
E -----------------------------------------|

*open

e -----------------------------------------|
B -----------------------------------------|
G -----------------------------------------|
D -2-2---------7-7---------2-2---------7-7-|
A -2-2---------7-7---------2-2---------7-7-|
E -0-0---------5-5---------0-0---------5-5-|

e -----------------------------10b---------10-9-7-|
B ------------------------------------------------|
G ------------------------------------------------|
D -2-2---------7-7---------2-2---------7-7--------|
A -2-2---------7-7---------2-2---------7-7--------|
E -0-0---------5-5---------0-0---------5-5--------|

e ------------------------------------------------|
B ------------------------------------------------|
G ------------------------------------------------|
D -2-2---------7-7---------2-2---------7-7--------|
A -2-2--7-6-7--7-7--77-6-7-2-2--7-6-7--7-7--7-6---|
E -0-0---------5-5---------0-0---------5-5------9-|

                             (guitar 2)
e ---------------------------------------------------------|
B -------------------------------3b------------------------|
G ---------------------------------------------------------|
D -2-2---------7-7---------2-2-2-2-2-2-2-2-7-7-7-7-7-7-7-7-|
A -2-2--7-6-7--7-7--7-6-7--2-2-2-2-2-2-2-2-7-7-7-7-7-7-7-7-|
E -0-0---------5-5---------0-0-0-0-0-0-0-0-5-5-5-5-5-5-5-5-|


Guitar(chorus):

e -------------------------------------|
B -------------------------------------|
G -------------------------------------|  x2
D ---------------------------2-2---2---|
A -9-9-9----7-7-7----2-2-2-------------|
E -7-7-7----5-5-5----0-0-0-------0---0-|

e ---------------------------------------------------|
B ---------------------------------------------------|
G ---------------------------------------------------|
D -9-9-9----7-7-7----2--2--2--2-------9-9-9----7-7-7-|
A -9-9-9----7-7-7----2--2--2--2-------9-9-9----7-7-7-|
E -7-7-7----5-5-5----0--0--0--0-------7-7-7----5-5-5-|


Guitar(verse 2): palm muted


e ------------------------------------------|
B -----5-4-5-----55-4-5-----5-4-5-----5-4-2-|
G ------------------------------------------| 
D ------------------------------------------|
A ------------------------------------------|
E ------------------------------------------|
[ Tab from: http://www.guitartabs.cc/tabs/e/eve_6/at_least_were_dreaming_tab.html ]
e ---------------------------10b---------10-9-7-|
B -----5-4-5-----55-4-5-------------------------|
G ----------------------------------------------|
D -----------------------2-2---------7-7--------|
A -----------------------2-2---------7-7--------|
E -----------------------0-0---------5-5--------|

e ----------------------------------------|
B ----------------------------------------|
G ----------------------------------------|
D ----------------------------------------|
A ------7-6-7-----------7-6-7-------7-6---|
E --------------------------------------9-|

*open

e -----------------------------------------------------|
B -----------------------------------------------------|
G -----------------------------------------------------|
D ---------------------2-2-2-2-2-2-2-2-7-7-7-7-7-7-7-7-|
A -77-6-7------7-6-7---2-2-2-2-2-2-2-2-7-7-7-7-7-7-7-7-|
E ---------------------0-0-0-0-0-0-0-0-5-5-5-5-5-5-5-5-|

Bridge :  *split

Guitar 1                             Guitar 2                             
  
e ------------------------------|    e -2-0-0-4-0-0-7-0-|
B ------------------------------|    B -----------------|
G ------------------------------| x4 G -----------------|x22
D -14----14-9----9-7--7----7--7-|    D -----------------|
A -14----14-9----9-7--7----7--7-|    A -----------------|
E -12----12-7----7-5--5----5--5-|    E -----------------|

e --------------------------------|
B --------------------------------|
G --------------------------------|
D -14--14----9--9----7--7----7--7-|
A -14--14----9--9----7--7----7--7-|
E -12--12----7--7----5--5----5--5-|

e ---------------------------------------------------|
B ---------------------------------------------------|
G ---------------------------------------------------|
D -14--14----9--9----7-7-7-7-7-7-7-7-7-7-7-7-7-7-7-7-|
A -14--14----9--9----7-7-7-7-7-7-7-7-7-7-7-7-7-7-7-7-|
E -12--12----7--7----5-5-5-5-5-5-5-5-5-5-5-5-5-5-5-5-|


Guitar(chorus 2):

e -------------------------------------|
B -------------------------------------|
G -------------------------------------|  x2
D ---------------------------2-2---2---|
A -9-9-9----7-7-7----2-2-2-------------|
E -7-7-7----5-5-5----0-0-0-------0---0-|

e ---------------------|
B ---------------------|
G ---------------------|
D -9-9-9----7-7-7----2-|
A -9-9-9----7-7-7----2-|
E -7-7-7----5-5-5----0-|

e ----------------|
B ----------------|
G ----------------|  x4
D -9-9-9----7-7-7-|
A -9-9-9----7-7-7-|
E -7-7-7----5-5-5-|

e ------------------------------|
B ------------------------------|
G ------------------------------|
D -2-2-2----999-9----7--7--7--7-|
A -2-2-2----999-9----7--7--7--7-|
E -0-0-0----777-7----5--5--5--5-|

e --------------------------------|
B --------------------------------|
G --------------------------------|
D -2-2-2----9-9-9----7--7--7--7-5-|
A -2-2-2----9-9-9----7--7--7--7-5-|
E -0-0-0----7-7-7----5--5--5--5-3-|

e --------------------------------|
B --------------------------------|
G --------------------------------|
D -2-2-2----999-9----7--7--7--7-5-|
A -2-2-2----999-9----7--7--7--7-5-|
E -0-0-0----777-7----5--5--5--5-3-|

e ---------------------------
B ---------------------------|
G ---------------------------|
D -2-2-2----999-9----7--7--7-|
A -2-2-2----999-9----7--7--7-|
E -0-0-0----777-7----5--5--5-|


Outro : *Split

Guitar 1                 Guitar 2

e -2-0-0-4-0-0-7-0-|     e --------------------------------|
B -----------------|     B --------------------------------|
G -----------------|x5   G --------------------------------|
D -----------------|     D -2-2-2----7-7-7----5--5--5--5-3-|
A -----------------|     A -2-2-2----7-7-7----5--5--5--5-3-|
E -----------------|     E -0-0-0----7-7-7----5--5--5--5-3-|


e -2-0-0-4-0-0-7-0-2sus\0-|  e ----------------------|
B ------------------------|  B ----------------------|
G ------------------------|  G ----------------------|
D ------------------------|  D -2-2-2----9----7---\2-|
A ------------------------|  A -2-2-2----9----7---\2-|
E ------------------------|  E -0-0-0----7----5sus\0-|

Order : Intro
        Verse
        Chorus
        Verse 2
        Chorus
        Bridge
        Chorus 2
        Outro
End
Comments