Eve 6 - Arch Drive Goodbye Chords & Tabs

 

Arch Drive Goodbye Chords & Tabs

Eve 6 Chords & Tabs

Version: 1 Type: Bass Tab 0 ratings
1 star 2 stars 3 stars 4 stars 5 stars
comments

Arch Drive Goodbye Bass Tab

   
Tabbed By :
e-mail:

Tuning:

intro/verse 1/chorus
G|--------------------------------------------|
D|--------------------------------------------|
A|--------------------------------------------|
E|----9-9-9-9--4-4-4-4--2-2-2-2-2-2-2-2-------|

bridge 1
G|---------------------------------------------------------------------------|
D|---------------------------------------------------------------------------|
A|---------------------------------------------------------------------------|
E|-----9---------------2---------------6--------------2----------------------|
[ Tab from: http://www.guitartabs.cc/tabs/e/eve_6/arch_drive_goodbye_btab.html ]
bridge 2
G|----------------------------------|
D|----------------------------------|
A|----------------------------------|
E|------44444444--666666-22---------|

heavy choruses (2:34, 3:33)
G|-----------------------------------------------------------------------------|
D|-----------------------------------------------------------------------------|
A|-----------------------------------------------------------------------------|
E|-----9--9--xxxx--4--4--xxxx--2--2--xxxx--2--2--xxxx--------------------------|


you can figure out the order and number of times to play it


| /  slide up
| \  slide down
| h  hammer-on
| p  pull-off
| ~  vibrato
| +  harmonic
| x  Mute note
Comments