Eve 6 - Anytime Chords & Tabs

 

Anytime Chords & Tabs

Eve 6 Chords & Tabs

Version: 3 Type: Tab 0 ratings
1 star 2 stars 3 stars 4 stars 5 stars
comments

Anytime Tab

An awesome song that I heard off of that movie Out Cold. 99.9% correct.

Intro
e|--------------------------------------------------------|
B|--------------------------------------------------------|
G|--------------------------------------------------------|
D|-9----7----5--------------------------------------------|
A|-9----7----5--------------------------------------------|
D|-9----7----5--------------------------------------------|

Intro Part 2
e|------------------------------------------|
B|------------------------------------------|
G|------------------------------------------|
D|-5p0xxx-4p0xxx-5p0xxx-4p0x-7--------------|  x2
A|-5p0xxx-4p0xxx-5p0xxx-4p0x-7--------------|
D|-5p0xxx-4p0xxx-5p0xxx-4p0x-7--------------|

Verse
e|-------------------------------------------------------------------|
B|-------------------------------------------------------------------|
G|-------------------------------------------------------------------|
D|-0---------5-0xxx-4-0xxx-5-0xxx-4-0xxx-9-9xxx-7-7xxx-5-0xxx-4-0----|
A|-0-let ring5-0xxx-4-0xxx-5-0xxx-4-0xxx-9-9xxx-7-7xxx-5-0xxx-4-0----|
D|-0---------5-0xxx-4-0xxx-5-0xxx-4-0xxx-9-9xxx-7-7xxx-5-0xxx-4-0----|

e|--------------------------------------------------|
B|-8-8--7-7--8-8--7-7-------------------------------|
G|-7-7--7-7--7-7--7-7-------------------------------|
D|--------------------------------------------------|
A|--------------------------------------------------|
E|--------------------------------------------------|

Pre Chorus
e|----------------------------------------------------------------|
B|----------------------------------------------------------------|
G|----------------------------------------------------------------|
D|-9-9xxxx-7-7xxx-9-----------------------------------------------|
A|-9-9xxxx-7-7xxx-9(x12)------------------------------------------|
D|-9-9xxxx-7-7xxx-9-----------------------------------------------|
[ Tab from: http://www.guitartabs.cc/tabs/e/eve_6/anytime_tab_ver_3.html ]
Chorus
e|-------------------------------------------------------------------|
B|-------------------------------------------------------------------|
G|-------------------------------------------------------------------|
D|-7-----0-----5-----0-----7-----0-----5-----0-----7--0-----5--------|
A|-7(x4)-0(x4)-5(x4)-0(x4)-7(x4)-0(x4)-5(x4)-0(x4)-7-0(x4)-5(x4)----|
D|-7-----0-----5-----0-----7-----0-----5-----0-----7--0-----5--------|

e|-------------------------------------|
B|-------------------------------------|
G|-------------------------------------|
D|-0-----7-----0-----5-----0-----------|
A|-0(x4)-7(x4)-0(x4)-5(x4)-0(x4)-------|
D|-0-----7-----0-----5-----0-----------|


Verse 2 fill
e|--------------------------------|
B|--------------------------------|
G|--------------------------------|
D|-5-0xxx-4-0-7-7-----------------|
A|-5-0xxx-4-0-7-7-----------------|
D|-5-0xxx-4-0-7-7-----------------|

Verse


e|---------------------------------------------------|
B|---------------------------------------------------|
G|---------------------------------------------------|
D|-5p0-0-0-4p0-0-0-----------------------------------| x2
A|-5p0-0-0-4p0-0-0-----------------------------------|
D|-5p0-0-0-4p0-0-0-----------------------------------|

Pre Chorus

Chorus

Bridge
e|-----------------------------------------------------------|
B|-----------------------------------------------------------|
G|-----------------------------------------------------------|
D|-0-0-0-0-0-0-0-0-0-0-0-0-0-0-through the whole time--------|
A|-----------------------------------------------------------|
D|-----------------------------------------------------------|

Then
e|-------------------------------------------------|
B|-------------------------------------------------|
G|-------------------------------------------------|
D|-0-----2-----4-----5-5-7-7-----------------------|          x6
A|-0(x4)-2(x4)-4(x4)-5-5-7-7-----------------------|
D|-0-----2-----4-----5-5-7-7-----------------------|

Intro Part 2
Comments