Eve 6 - Anytime Chords & Tabs

 

Anytime Chords & Tabs

Eve 6 Chords & Tabs

Version: 2 Type: Tab 0 ratings
1 star 2 stars 3 stars 4 stars 5 stars
comments

Anytime Tab

------------------------------------------------------------
                        Eve6-Anytime
------------------------------------------------------------
 
This song is in dropped D tuning! This is probably the best song by Eve 6!
(Dont start untill the words,"probably wont come back again"
e----------------------------------------------------------|
B----------------------------------------------------------|
G----------------------------------------------------------|
D-9---7---5------------------------------------------------|
A-9---7---5--ring------------------------------------------|
D-9---7---5------------------------------------------------|
             VERSE 
-----------------------------------------------------------|
-----------------------------------------------------------|
-----------------------------------------------------------|
---5---0-X-X--4---0-X-X--5---0-X-X--4---0-X--7------|0-----|
---5---0-X-X--4---0-X-X--5---0-X-X--4---0-X--7---X2-|0-ring|
---5---0-X-X--4---0-X-X--5---0-X-X--4---0-X--7------|0-----|
Pause for singing for a sec. Listen to song to hear what I mean. 
-----------------------------------------------------------|
-----------------------------------------------------------|
-----------------------------------------------------------|
--5---0-X-X--4---0-X-X--5---0-X-X--4---0-X-X---------------|
--5---0-X-X--4---0-X-X--5---0-X-X--4---0-X-X---------------|
--5---0-X-X--4---0-X-X--5---0-X-X--4---0-X-X---------------|

-----------------------------------------------------------|
-----------------------------------------------------------|
-----------------------------------------------------------|
-9-9-X-X-X-X-7-7-X-X-X-X-5---0-X-X-4---0-X-X---------------|
-9-9-X-X-X-X-7-7-X-X-X-X-5---0-X-X-4---0-X-X---------------|
-9-9-X-X-X-X-7-7-X-X-X-X-5---0-X-X-4---0-X-X---------------|
                    CHORUS
-----------------------------------------------------------|
-----------------------------------------------------------|
-----------------------------------------------------------|
--7--------0--------5--------0-----------------------------|
--7---X4---0---X4---5---X4---0---X4------------------------|
--7--------0--------5--------0-----------------------------|

This is all I have so far. I think its pretty good. I think the rest is the same 
thing only on different frets. Tell me if you like it! Onfal2@aol.com
[ Tab from: http://www.guitartabs.cc/tabs/e/eve_6/anytime_tab_ver_2.html ]
Comments