Evans Dave - Steppenwolf Chords & Tabs

 

Steppenwolf Chords & Tabs

Evans Dave Chords & Tabs

Version: 1 Type: Tab 0 ratings
1 star 2 stars 3 stars 4 stars 5 stars
comments

Steppenwolf Tab

   
#----------------------------------PLEASE NOTE---------------------------------#
#This file is the author's own work and represents their interpretation of the #
#song. You may only use this file for private study, scholarship, or research. #
#------------------------------------------------------------------------------#

Date: Tue, 02 Dec 1997 12:22:04 +0100
From: Nicolas Menard 
Subject: TAB: steppenwolf by Dave Evans


 DAVE EVANS.   "STEPPENWOLF"
 ---------------------------


Tabbed by Nicolas Menard
Source: CD "the art of fingerstyle guitar" (shanachie)
Your comments are welcome: mhmenard@nordnet.fr


Tuning: CGDGAD

h   : hammer on
p   : pull off
/   : slide up
! ! : harmonic






      'a'
D:-||--------------0----|-------------0----------|-------------0----|
A:-||--------8--------0-|-------3--------3-----0-|-8-----8--------0-|
G:-||-----------9-------|----------4--------4----|----------9-------|
D:-||-----7-------------|----2-------------------|----7-------------|
G:-||--7----------------|-2----------------------|-7----------------|
C:-||-------------------|------------------------|------------------|





D:------------0---------|----------------------|-----------------------|
A:-------3-------3----0-|-------------0--------|-------2-----0-----2---|
G:----------4-------4---|----------0----0----0-|----------0-----0----0-|
D:----2-----------------|-------3----------3---|----0------------------|
G:-2--------------------|----5-----------------|-0---------------------|
C:----------------------|-5--------------------|-----------------------|





D:-----------------------|------------------||---|---------------------|
A:-------------0---------|--------------!12!||---|----------------!12!-|
G:----------0-----0----0-|---------!12!-----||---|-----------!12!------|
D:-------3-----------3---|----0--9----------||-x2|--------11-----------|
G:----5------------------|-0----------------||---|-----9---------------|
C:-5---------------------|------------------||---|--9------------------|

  end of section 'a'



D:-||--------0-|---------|-0-------|---------|
A:-||--8-------|-3-----0-|----3----|-0-------|
G:-||-----9----|----4----|-------3-|----0----|
D:-||----------|---------|---------|-------3-|
G:-||--7-------|-2-------|-3-------|-5-------|
C:-||----------|---------|---------|-5-------|



D:-------------------0----------------|-------0-|---------|-0-------|
A:----------0-----------------0-------|-8-------|-3-----0-|----3----|
G:-------4--------4--------4-----0----|----9----|----4----|-------3-|
D:----5--------5--------5-----------0-|---------|---------|---------|
G:-0----------------------------------|-7-------|-2-------|-3-------|
C:------------------------------------|---------|---------|---------|





D:---------|-------------------0----------------|-------0-|---------|
A:-0-------|----------0-----------------0-------|-8-------|-3-----0-|
G:----0----|-0-----0--------0--------0-----0----|----9----|----4----|
D:-------0-|----5--------5--------5-----------0-|---------|---------|
G:---------|------------------------------------|-7-------|-2-------|
C:-5-------|-3----------------------------------|---------|---------|





D:-0----------------|-------------------0----------------||
A:----3-----0-------|----------0-----------------0-------||
G:-------3-----0----|-------4--------4--------4-----0----||
D:----------------0-|----5--------5--------5-----------0-||
G:-3----------------|-0----------------------------------||
C:----------5-------|------------------------------------||





D:-------------------5--0----------|----|-5--0----------|----|
A:-0--------0--------------0-------|----|-------0-------|----|
G:----0--------0--------------0----|----|----------0----|----|
D:-------4--------4--------------4-|-x2-|-------------4-|-x2-|
G:-2-------------------------------|----|---------------|----|
C:-2-------------------------------|----|---------------|----|



[ Tab from: http://www.guitartabs.cc/tabs/e/evans_dave/steppenwolf_tab.html ]
    'b'
D:||-------------0---------------|---|------------0---------------||---|
A:||-------2-3h-----3-p2--0----0-|---|------1--3-----3--1--0------||---|
G:||-------------------------0---|---|---0--------------------0---||---|
D:||----0------------------------|-x2|--------------------------3-||-x2|
G:||-0---------------------------|---|-3--------------------------||---|
C:||-----------------------------|---|-3--------------------------||---|





D:--|----------0------------------5-----------0---------------------|---|
A:--|----2-3h-----3-p2--0---0--2--------2-3h-----3-p2-0-------------|---|
G:--|---------------------0------------------------------0----------|---|
D:--|-0------------------------------0----------------------0-1h-/2-|---|
G:-0|-----------------------------0-------------------------------0-|-x2|
C:--|---------------------------------------------------------------|---|





D:----------0-------------------|-------------5--------------0-|
A:----2-3h-----3-p2--0-----0----|-------5-7h-----5-----2-3h----|
G:----------------------0-----0-|-------------------5----------|
D:-0----------------------------|----5-------------------------|
G:------------------------------|-5--------------------0-------|
C:------------------------------|------------------------------|




                                 '1'
D:-------------5-------|-------0--2----------------|----|
A:-7-----5-7h-----5----|-2-3h-----0--------0-------|----|
G:-------------------5-|----------5-----0-----0----|----|
D:----5----------------|----------3--3-----------3-|-x2-|
G:-5-------------------|-0-------------------------|----|
C:---------------------|----------5----------------|----|




D:-repeat-once----------2-|
A:-from-'b'.------------0-|
G:-last-time--------------|
D:-play-the-chord---------|
G:-under-'1'-like-this:---|
C:----------------------5-|





D:--------------------0----------------|----|
A:-----------3-----------------3-------|----|
G:-----4--------4--------4--------4----|----|
D:--------0--------0--------0--------0-|-x2-|
G:--0----------------------------------|----|
C:-------------------------------------|----|





D:-------------------0----------------|----|
A:----------3-----------------3-------|----|
G:----4--------4--------4--------4----|----|
D:-------2--------2--------2--------2-|-x2-|
G:-2----------------------------------|----|
C:------------------------------------|----|





D:----------------4-------------------|----------------4-------------|
A:----------4-5h-----5-p4-----------4-|----------4-5h-----5-p4-------|
G:----4--------------------4-----4----|----4--------------------4----|
D:-------4--------------------7-------|-------4--------------------7-|
G:-4----------------------------------|-4----------------------------|
C:------------------------------------|------------------------------|





D:----------------5-------------------|----------------5---------------|
A:----------5-7h-----8-p7--5----------|----------5-7h-----8-p7-p5----7-|
G:----5-----------------------5-------|----5-----------------------5---|
D:-------5-----------------------5--7-|-------5------------------------|
G:-5----------------------------------|-5------------------------------|
C:------------------------------------|--------------------------------|




D:-------------------0----------------|----|
A:----7-----9-p7--------7-----9-p7----|----|
G:------------------------------------|----|
D:-------7--------7--------7--------7-|-x2-|
G:-7----------------------------------|----|
C:------------------------------------|----|




D:-------------------0----------------|----||
A:----7-----8-p7--------7-----8-p7----|----||
G:------------------------------------|----||
D:-------7--------7--------7--------7-|-x2-||
G:-7----------------------------------|----||
C:------------------------------------|----||



repeat section 'a', then:



D:----------------------|------------------|------------------|-!5!-||
A:-----------------!12!-|--------------!7!-|--------------!5!-|-----||
G:-----------!12!-------|---------!7!------|---------!5!------|-----||
D:--------12------------|-------6----------|-------4----------|-----||
G:-----10---------------|----4-------------|----2-------------|-----||
C:--10------------------|-4----------------|-2----------------|-----||


Comments