Evans Darrell - Trading My Sorrows Chords & Tabs

 

Trading My Sorrows Chords & Tabs

Evans Darrell Chords & Tabs

Version: 1 Type: Bass Tab 0 ratings
1 star 2 stars 3 stars 4 stars 5 stars
comments

Trading My Sorrows Bass Tab

This is a very simple song to play on a bass. 
Here's all you have to do.


Tuning:EADG


G-----------------------------------3/7-7-------------------------G
D------0---2/4-4--2--------2/4-4--6-------0--4-4-2----------------D
A--0-0--------------0-0-------------------------------------------A
E-----------------------------------------------------------------E
[ Tab from: http://www.guitartabs.cc/tabs/e/evans_darrell/trading_my_sorrows_btab.html ]
Just repeat this over and over, and on the bridge play this.


G-------------------------------------------------------------------G
D------------------0------------------------------------------------D
A-------0-0-0-------------------------------------------------------A
E---0---------0--3--------------------------------------------------E

That's it! Good luck, have fun, & God bless!

                                  Jack
Comments