Evans Blue - Q (acoustic) Chords & Tabs

 

Q (acoustic) Chords & Tabs

Evans Blue Chords & Tabs

Version: 1 Type: Tab 0 ratings
1 star 2 stars 3 stars 4 stars 5 stars
comments

Q (acoustic) Tab

Band: Evans Blue
Song: Q (acoustic_live)
Tabbed by:Rudy
Website:www.geocites.com/creed989
3:01 PM 8/31/2008

Tuning: Standard, half step down

Here is the video link if you'd like to play along:
http://www.youtube.com/watch?v=AbXQu6ldQw4


[ Tab from: http://www.guitartabs.cc/tabs/e/evans_blue/q_acoustic_tab.html ]
All verses               "It was the hardest part..."(pre chorus)
-4-4---0-0---4-4---0-0---|--2-2---4-4---0-0-----------------------------------
-4-4---2-2---4-4---2-2---|--2-2---4-4---2-2-----------------------------------
-6-6---2-2---6-6---2-2---|--4-4---6-6---2-2-----------------------------------
-6-6---2-2---6-6---2-2---|--4-4---6-6---2-2-----------------------------------
-4-4---0-0---4-4---0-0---|--2-2---4-4---0-0-----------------------------------
-------------------------|----------------------------------------------------
                                                                              
"Cause for hating..." (chorus) -listen for strum timings
-0-0---4-4---2-2---0-0---0-0--------------------------------------------------
-0-0---4-4---2-2---2-2---2-2--------------------------------------------------
-1-1---6-6---4-4---2-2---4-4--------------------------------------------------
-2-2---6-6---4-4---2-2---4-4--------------------------------------------------
-2-2---4-4---2-2---0-0---2-2--------------------------------------------------
-0-0--------------------------------------------------------------------------
                                                                              
"And we were drawing lines..."
------------------------------------------------------------------------------
------------------------------------------------------------------------------
-----4-------6---2------------------------------------------------------------
---4-------6-----2------------------------------------------------------------
-2-------4-------0------------------------------------------------------------
------------------------------------------------------------------------------
Comments