Evans Blue - Cold But Im Still Here Chords & Tabs

 

Cold But Im Still Here Chords & Tabs

Evans Blue Chords & Tabs

Version: 1 Type: Tab

Cold But Im Still Here Tab

This is probably wrong but it sounds ok and nobody has
tabbed it yet

[ Tab from: http://www.guitartabs.cc/tabs/e/evans_blue/cold_but_im_still_here_tab.html ]
   ----------------------------------------------------|
   ----------------------------------------------------|
   ----------------------------------------------------|
   ----------------------------------------------------|
   --4h6--6--7--9-11-12-11-7----4h6--6--7--9-11-(12)---|
   ----------------------------------------------------|

   ----------------------------------------------------|
   ----------------------------------------------------|
   ------------------------------------0----------0----|
   ------------------------------7---7--7---5---5---5--|
   --4h6--6--7--9-11-12-11-7---5---5------5---5--------|
   ----------------------------------------------------|